ISO-10303-21;
HEADER;
FILE_DESCRIPTION (( 'STEP AP203' ),
    '1' );
FILE_NAME ('Web Model 48201_36979.step',
    '2019-01-07T15:22:16',
    ( '' ),
    ( '' ),
    'SwSTEP 2.0',
    'SolidWorks 2016',
    '' );
FILE_SCHEMA (( 'CONFIG_CONTROL_DESIGN' ));
ENDSEC;

DATA;
#1 = CALENDAR_DATE ( 2019, 7, 1 ) ;
#2 = CARTESIAN_POINT ( 'NONE',  ( -12.50000000000000000, -12.50000000000000000, -1.000000000000000000 ) ) ;
#3 = CARTESIAN_POINT ( 'NONE',  ( 0.0000000000000000000, 0.0000000000000000000, 1.000000000000000000 ) ) ;
#4 = CARTESIAN_POINT ( 'NONE',  ( -12.50000000000000000, -12.50000000000000000, 1.000000000000000000 ) ) ;
#5 = FACE_OUTER_BOUND ( 'NONE', #168, .T. ) ;
#6 = ORIENTED_EDGE ( 'NONE', *, *, #159, .F. ) ;
#7 = CARTESIAN_POINT ( 'NONE',  ( -12.50000000000000000, 12.50000000000000000, 1.000000000000000000 ) ) ;
#8 = APPROVAL_STATUS ( 'not_yet_approved' ) ;
#9 = VERTEX_POINT ( 'NONE', #221 ) ;
#10 = DATE_TIME_ROLE ( 'creation_date' ) ;
#11 = PRODUCT_DEFINITION_FORMATION_WITH_SPECIFIED_SOURCE ( 'ANY', '', #137, .NOT_KNOWN. ) ;
#12 = EDGE_CURVE ( 'NONE', #27, #9, #36, .T. ) ;
#13 = LOCAL_TIME ( 10, 22, 16.00000000000000000, #60 ) ;
#14 = EDGE_CURVE ( 'NONE', #67, #28, #131, .T. ) ;
#15 = VECTOR ( 'NONE', #106, 1000.000000000000000 ) ;
#16 = VERTEX_POINT ( 'NONE', #141 ) ;
#17 = FACE_OUTER_BOUND ( 'NONE', #71, .T. ) ;
#18 = CARTESIAN_POINT ( 'NONE',  ( 12.50000000000000000, -12.50000000000000000, -1.000000000000000000 ) ) ;
#19 = SECURITY_CLASSIFICATION ( '', '', #196 ) ;
#20 =( LENGTH_UNIT ( ) NAMED_UNIT ( * ) SI_UNIT ( .MILLI., .METRE. ) );
#21 = EDGE_CURVE ( 'NONE', #9, #42, #103, .T. ) ;
#22 = CARTESIAN_POINT ( 'NONE',  ( -12.50000000000000000, -12.50000000000000000, 1.000000000000000000 ) ) ;
#23 = LINE ( 'NONE', #207, #31 ) ;
#24 = ORIENTED_EDGE ( 'NONE', *, *, #34, .T. ) ;
#25 = DIRECTION ( 'NONE',  ( 0.0000000000000000000, -1.000000000000000000, 0.0000000000000000000 ) ) ;
#26 = PERSON_AND_ORGANIZATION_ROLE ( 'design_supplier' ) ;
#27 = VERTEX_POINT ( 'NONE', #54 ) ;
#28 = VERTEX_POINT ( 'NONE', #2 ) ;
#29 = ADVANCED_FACE ( 'NONE', ( #212 ), #162, .F. ) ;
#30 = CC_DESIGN_PERSON_AND_ORGANIZATION_ASSIGNMENT ( #184, #43, ( #19 ) ) ;
#31 = VECTOR ( 'NONE', #40, 1000.000000000000000 ) ;
#32 = ORIENTED_EDGE ( 'NONE', *, *, #46, .F. ) ;
#33 = DIRECTION ( 'NONE',  ( 1.000000000000000000, 0.0000000000000000000, 0.0000000000000000000 ) ) ;
#34 = EDGE_CURVE ( 'NONE', #67, #27, #138, .T. ) ;
#35 = VECTOR ( 'NONE', #56, 1000.000000000000000 ) ;
#36 = LINE ( 'NONE', #91, #185 ) ;
#37 = APPLICATION_PROTOCOL_DEFINITION ( 'international standard', 'config_control_design', 1994, #165 ) ;
#38 = PLANE ( 'NONE',  #188 ) ;
#39 = CALENDAR_DATE ( 2019, 7, 1 ) ;
#40 = DIRECTION ( 'NONE',  ( 1.000000000000000000, 0.0000000000000000000, 0.0000000000000000000 ) ) ;
#41 = LINE ( 'NONE', #7, #199 ) ;
#42 = VERTEX_POINT ( 'NONE', #186 ) ;
#43 = PERSON_AND_ORGANIZATION_ROLE ( 'classification_officer' ) ;
#44 = PERSON_AND_ORGANIZATION ( #152, #183 ) ;
#45 = AXIS2_PLACEMENT_3D ( 'NONE', #93, #166, #223 ) ;
#46 = EDGE_CURVE ( 'NONE', #176, #102, #204, .T. ) ;
#47 = ADVANCED_FACE ( 'NONE', ( #5 ), #229, .F. ) ;
#48 = ADVANCED_BREP_SHAPE_REPRESENTATION ( 'Web Model 48201_36979', ( #178, #45 ), #182 ) ;
#49 = ORIENTED_EDGE ( 'NONE', *, *, #145, .T. ) ;
#50 = LOCAL_TIME ( 10, 22, 16.00000000000000000, #175 ) ;
#51 = DIRECTION ( 'NONE',  ( 0.0000000000000000000, 0.0000000000000000000, -1.000000000000000000 ) ) ;
#52 = DIRECTION ( 'NONE',  ( -1.000000000000000000, 0.0000000000000000000, -0.0000000000000000000 ) ) ;
#53 = DATE_AND_TIME ( #104, #65 ) ;
#54 = CARTESIAN_POINT ( 'NONE',  ( 12.50000000000000000, -12.50000000000000000, 1.000000000000000000 ) ) ;
#55 = EDGE_LOOP ( 'NONE', ( #94, #32, #66, #49 ) ) ;
#56 = DIRECTION ( 'NONE',  ( 0.0000000000000000000, 1.000000000000000000, 0.0000000000000000000 ) ) ;
#57 = DESIGN_CONTEXT ( 'detailed design', #110, 'design' ) ;
#58 = CC_DESIGN_DATE_AND_TIME_ASSIGNMENT ( #230, #133, ( #19 ) ) ;
#59 = EDGE_CURVE ( 'NONE', #42, #102, #135, .T. ) ;
#60 = COORDINATED_UNIVERSAL_TIME_OFFSET ( 5, 0, .BEHIND. ) ;
#61 = APPROVAL_STATUS ( 'not_yet_approved' ) ;
#62 = ORIENTED_EDGE ( 'NONE', *, *, #179, .F. ) ;
#63 = AXIS2_PLACEMENT_3D ( 'NONE', #127, #98, #74 ) ;
#64 = APPLICATION_PROTOCOL_DEFINITION ( 'international standard', 'config_control_design', 1994, #110 ) ;
#65 = LOCAL_TIME ( 10, 22, 16.00000000000000000, #164 ) ;
#66 = ORIENTED_EDGE ( 'NONE', *, *, #101, .F. ) ;
#67 = VERTEX_POINT ( 'NONE', #4 ) ;
#68 = APPROVAL ( #80, 'UNSPECIFIED' ) ;
#69 = CARTESIAN_POINT ( 'NONE',  ( -12.50000000000000000, -12.50000000000000000, 1.000000000000000000 ) ) ;
#70 = CARTESIAN_POINT ( 'NONE',  ( -12.50000000000000000, 12.50000000000000000, 1.000000000000000000 ) ) ;
#71 = EDGE_LOOP ( 'NONE', ( #220, #6, #200, #84 ) ) ;
#72 = DIRECTION ( 'NONE',  ( -0.0000000000000000000, -0.0000000000000000000, -1.000000000000000000 ) ) ;
#73 = APPROVAL ( #61, 'UNSPECIFIED' ) ;
#74 = DIRECTION ( 'NONE',  ( 0.0000000000000000000, 0.0000000000000000000, -1.000000000000000000 ) ) ;
#75 = DIRECTION ( 'NONE',  ( 0.0000000000000000000, -0.0000000000000000000, -1.000000000000000000 ) ) ;
#76 = COORDINATED_UNIVERSAL_TIME_OFFSET ( 5, 0, .BEHIND. ) ;
#77 = CARTESIAN_POINT ( 'NONE',  ( 0.0000000000000000000, 0.0000000000000000000, -1.000000000000000000 ) ) ;
#78 = CARTESIAN_POINT ( 'NONE',  ( 12.50000000000000000, -12.50000000000000000, 1.000000000000000000 ) ) ;
#79 = ORIENTED_EDGE ( 'NONE', *, *, #34, .F. ) ;
#80 = APPROVAL_STATUS ( 'not_yet_approved' ) ;
#81 = APPROVAL_ROLE ( '' ) ;
#82 = PRODUCT_RELATED_PRODUCT_CATEGORY ( 'detail', '', ( #137 ) ) ;
#83 = VECTOR ( 'NONE', #129, 1000.000000000000000 ) ;
#84 = ORIENTED_EDGE ( 'NONE', *, *, #59, .F. ) ;
#85 = CC_DESIGN_PERSON_AND_ORGANIZATION_ASSIGNMENT ( #130, #233, ( #11 ) ) ;
#86 = AXIS2_PLACEMENT_3D ( 'NONE', #112, #25, #75 ) ;
#87 = LINE ( 'NONE', #225, #35 ) ;
#88 = ORIENTED_EDGE ( 'NONE', *, *, #46, .T. ) ;
#89 = PERSON_AND_ORGANIZATION ( #152, #183 ) ;
#90 = DIRECTION ( 'NONE',  ( 0.0000000000000000000, 1.000000000000000000, 0.0000000000000000000 ) ) ;
#91 = CARTESIAN_POINT ( 'NONE',  ( 12.50000000000000000, -12.50000000000000000, 1.000000000000000000 ) ) ;
#92 = VECTOR ( 'NONE', #33, 1000.000000000000000 ) ;
#93 = CARTESIAN_POINT ( 'NONE',  ( 0.0000000000000000000, 0.0000000000000000000, 0.0000000000000000000 ) ) ;
#94 = ORIENTED_EDGE ( 'NONE', *, *, #59, .T. ) ;
#95 = PLANE ( 'NONE',  #86 ) ;
#96 = AXIS2_PLACEMENT_3D ( 'NONE', #210, #148, #124 ) ;
#97 = PERSON_AND_ORGANIZATION_ROLE ( 'design_owner' ) ;
#98 = DIRECTION ( 'NONE',  ( 1.000000000000000000, 0.0000000000000000000, 0.0000000000000000000 ) ) ;
#99 = DIRECTION ( 'NONE',  ( 0.0000000000000000000, 0.0000000000000000000, 1.000000000000000000 ) ) ;
#100 = CC_DESIGN_APPROVAL ( #68, ( #19 ) ) ;
#101 = EDGE_CURVE ( 'NONE', #16, #176, #41, .T. ) ;
#102 = VERTEX_POINT ( 'NONE', #192 ) ;
#103 = LINE ( 'NONE', #18, #139 ) ;
#104 = CALENDAR_DATE ( 2019, 7, 1 ) ;
#105 = ORIENTED_EDGE ( 'NONE', *, *, #119, .F. ) ;
#106 = DIRECTION ( 'NONE',  ( -0.0000000000000000000, -0.0000000000000000000, -1.000000000000000000 ) ) ;
#107 = CARTESIAN_POINT ( 'NONE',  ( -12.50000000000000000, -12.50000000000000000, 1.000000000000000000 ) ) ;
#108 = VECTOR ( 'NONE', #147, 1000.000000000000000 ) ;
#109 = PLANE ( 'NONE',  #96 ) ;
#110 = APPLICATION_CONTEXT ( 'configuration controlled 3d designs of mechanical parts and assemblies' ) ;
#111 = ORIENTED_EDGE ( 'NONE', *, *, #101, .T. ) ;
#112 = CARTESIAN_POINT ( 'NONE',  ( -12.50000000000000000, 12.50000000000000000, 1.000000000000000000 ) ) ;
#113 = EDGE_LOOP ( 'NONE', ( #157, #111, #161, #24 ) ) ;
#114 = CC_DESIGN_PERSON_AND_ORGANIZATION_ASSIGNMENT ( #89, #201, ( #158 ) ) ;
#115 = ORIENTED_EDGE ( 'NONE', *, *, #12, .T. ) ;
#116 = LOCAL_TIME ( 10, 22, 16.00000000000000000, #195 ) ;
#117 = ORIENTED_EDGE ( 'NONE', *, *, #12, .F. ) ;
#118 = CC_DESIGN_APPROVAL ( #236, ( #158 ) ) ;
#119 = EDGE_CURVE ( 'NONE', #27, #16, #87, .T. ) ;
#120 = PERSON_AND_ORGANIZATION ( #152, #183 ) ;
#121 = FACE_OUTER_BOUND ( 'NONE', #213, .T. ) ;
#122 = PERSON_AND_ORGANIZATION ( #152, #183 ) ;
#123 = PERSON_AND_ORGANIZATION ( #152, #183 ) ;
#124 = DIRECTION ( 'NONE',  ( 0.0000000000000000000, -0.0000000000000000000, 1.000000000000000000 ) ) ;
#125 = LINE ( 'NONE', #22, #174 ) ;
#126 = CC_DESIGN_APPROVAL ( #73, ( #11 ) ) ;
#127 = CARTESIAN_POINT ( 'NONE',  ( -12.50000000000000000, -12.50000000000000000, 1.000000000000000000 ) ) ;
#128 = CARTESIAN_POINT ( 'NONE',  ( -12.50000000000000000, 12.50000000000000000, 1.000000000000000000 ) ) ;
#129 = DIRECTION ( 'NONE',  ( -0.0000000000000000000, -1.000000000000000000, -0.0000000000000000000 ) ) ;
#130 = PERSON_AND_ORGANIZATION ( #152, #183 ) ;
#131 = LINE ( 'NONE', #69, #218 ) ;
#132 = UNCERTAINTY_MEASURE_WITH_UNIT (LENGTH_MEASURE( 1.000000000000000100E-005 ), #20, 'distance_accuracy_value', 'NONE');
#133 = DATE_TIME_ROLE ( 'classification_date' ) ;
#134 = CC_DESIGN_SECURITY_CLASSIFICATION ( #19, ( #11 ) ) ;
#135 = LINE ( 'NONE', #171, #237 ) ;
#136 = ORIENTED_EDGE ( 'NONE', *, *, #21, .T. ) ;
#137 = PRODUCT ( 'Web Model 48201_36979', 'Web Model 48201_36979', '', ( #228 ) ) ;
#138 = LINE ( 'NONE', #107, #92 ) ;
#139 = VECTOR ( 'NONE', #90, 1000.000000000000000 ) ;
#140 = CC_DESIGN_PERSON_AND_ORGANIZATION_ASSIGNMENT ( #120, #26, ( #11 ) ) ;
#141 = CARTESIAN_POINT ( 'NONE',  ( 12.50000000000000000, 12.50000000000000000, 1.000000000000000000 ) ) ;
#142 = AXIS2_PLACEMENT_3D ( 'NONE', #77, #144, #191 ) ;
#143 = ORIENTED_EDGE ( 'NONE', *, *, #159, .T. ) ;
#144 = DIRECTION ( 'NONE',  ( 0.0000000000000000000, 0.0000000000000000000, -1.000000000000000000 ) ) ;
#145 = EDGE_CURVE ( 'NONE', #16, #42, #154, .T. ) ;
#146 = APPROVAL_PERSON_ORGANIZATION ( #123, #236, #153 ) ;
#147 = DIRECTION ( 'NONE',  ( -0.0000000000000000000, -0.0000000000000000000, -1.000000000000000000 ) ) ;
#148 = DIRECTION ( 'NONE',  ( 0.0000000000000000000, 1.000000000000000000, 0.0000000000000000000 ) ) ;
#149 = SHAPE_DEFINITION_REPRESENTATION ( #203, #48 ) ;
#150 = PLANE ( 'NONE',  #142 ) ;
#151 = ORIENTED_EDGE ( 'NONE', *, *, #14, .F. ) ;
#152 = PERSON ( 'UNSPECIFIED', 'UNSPECIFIED', 'UNSPECIFIED', ('UNSPECIFIED'), ('UNSPECIFIED'), ('UNSPECIFIED') ) ;
#153 = APPROVAL_ROLE ( '' ) ;
#154 = LINE ( 'NONE', #170, #108 ) ;
#155 = APPROVAL_DATE_TIME ( #53, #236 ) ;
#156 = ADVANCED_FACE ( 'NONE', ( #234 ), #95, .F. ) ;
#157 = ORIENTED_EDGE ( 'NONE', *, *, #119, .T. ) ;
#158 = PRODUCT_DEFINITION ( 'UNKNOWN', '', #11, #57 ) ;
#159 = EDGE_CURVE ( 'NONE', #28, #9, #23, .T. ) ;
#160 = APPROVAL_PERSON_ORGANIZATION ( #44, #73, #81 ) ;
#161 = ORIENTED_EDGE ( 'NONE', *, *, #179, .T. ) ;
#162 = PLANE ( 'NONE',  #197 ) ;
#163 = DATE_AND_TIME ( #173, #116 ) ;
#164 = COORDINATED_UNIVERSAL_TIME_OFFSET ( 5, 0, .BEHIND. ) ;
#165 = APPLICATION_CONTEXT ( 'configuration controlled 3d designs of mechanical parts and assemblies' ) ;
#166 = DIRECTION ( 'NONE',  ( 0.0000000000000000000, 0.0000000000000000000, 1.000000000000000000 ) ) ;
#167 = APPROVAL_DATE_TIME ( #189, #73 ) ;
#168 = EDGE_LOOP ( 'NONE', ( #181, #151, #62, #88 ) ) ;
#169 = CARTESIAN_POINT ( 'NONE',  ( -12.50000000000000000, -12.50000000000000000, -1.000000000000000000 ) ) ;
#170 = CARTESIAN_POINT ( 'NONE',  ( 12.50000000000000000, 12.50000000000000000, 1.000000000000000000 ) ) ;
#171 = CARTESIAN_POINT ( 'NONE',  ( -12.50000000000000000, 12.50000000000000000, -1.000000000000000000 ) ) ;
#172 = APPROVAL_PERSON_ORGANIZATION ( #219, #68, #215 ) ;
#173 = CALENDAR_DATE ( 2019, 7, 1 ) ;
#174 = VECTOR ( 'NONE', #193, 1000.000000000000000 ) ;
#175 = COORDINATED_UNIVERSAL_TIME_OFFSET ( 5, 0, .BEHIND. ) ;
#176 = VERTEX_POINT ( 'NONE', #128 ) ;
#177 = ADVANCED_FACE ( 'NONE', ( #17 ), #150, .T. ) ;
#178 = MANIFOLD_SOLID_BREP ( 'Boss-Extrude1', #217 ) ;
#179 = EDGE_CURVE ( 'NONE', #176, #67, #125, .T. ) ;
#180 = APPROVAL_DATE_TIME ( #194, #68 ) ;
#181 = ORIENTED_EDGE ( 'NONE', *, *, #226, .T. ) ;
#182 =( GEOMETRIC_REPRESENTATION_CONTEXT ( 3 ) GLOBAL_UNCERTAINTY_ASSIGNED_CONTEXT ( ( #132 ) ) GLOBAL_UNIT_ASSIGNED_CONTEXT ( ( #20, #190, #209 ) ) REPRESENTATION_CONTEXT ( 'NONE', 'WORKASPACE' ) );
#183 = ORGANIZATION ( 'UNSPECIFIED', 'UNSPECIFIED', '' ) ;
#184 = PERSON_AND_ORGANIZATION ( #152, #183 ) ;
#185 = VECTOR ( 'NONE', #72, 1000.000000000000000 ) ;
#186 = CARTESIAN_POINT ( 'NONE',  ( 12.50000000000000000, 12.50000000000000000, -1.000000000000000000 ) ) ;
#187 = DIRECTION ( 'NONE',  ( -1.000000000000000000, -0.0000000000000000000, -0.0000000000000000000 ) ) ;
#188 = AXIS2_PLACEMENT_3D ( 'NONE', #78, #211, #99 ) ;
#189 = DATE_AND_TIME ( #39, #13 ) ;
#190 =( NAMED_UNIT ( * ) PLANE_ANGLE_UNIT ( ) SI_UNIT ( $, .RADIAN. ) );
#191 = DIRECTION ( 'NONE',  ( -1.000000000000000000, 0.0000000000000000000, -0.0000000000000000000 ) ) ;
#192 = CARTESIAN_POINT ( 'NONE',  ( -12.50000000000000000, 12.50000000000000000, -1.000000000000000000 ) ) ;
#193 = DIRECTION ( 'NONE',  ( -0.0000000000000000000, -1.000000000000000000, -0.0000000000000000000 ) ) ;
#194 = DATE_AND_TIME ( #1, #50 ) ;
#195 = COORDINATED_UNIVERSAL_TIME_OFFSET ( 5, 0, .BEHIND. ) ;
#196 = SECURITY_CLASSIFICATION_LEVEL ( 'unclassified' ) ;
#197 = AXIS2_PLACEMENT_3D ( 'NONE', #3, #51, #52 ) ;
#198 = ADVANCED_FACE ( 'NONE', ( #216 ), #109, .F. ) ;
#199 = VECTOR ( 'NONE', #208, 1000.000000000000000 ) ;
#200 = ORIENTED_EDGE ( 'NONE', *, *, #226, .F. ) ;
#201 = PERSON_AND_ORGANIZATION_ROLE ( 'creator' ) ;
#202 = CC_DESIGN_DATE_AND_TIME_ASSIGNMENT ( #163, #10, ( #158 ) ) ;
#203 = PRODUCT_DEFINITION_SHAPE ( 'NONE', 'NONE',  #158 ) ;
#204 = LINE ( 'NONE', #70, #15 ) ;
#205 = DIRECTION ( 'NONE',  ( -0.0000000000000000000, -0.0000000000000000000, -1.000000000000000000 ) ) ;
#206 = CALENDAR_DATE ( 2019, 7, 1 ) ;
#207 = CARTESIAN_POINT ( 'NONE',  ( -12.50000000000000000, -12.50000000000000000, -1.000000000000000000 ) ) ;
#208 = DIRECTION ( 'NONE',  ( -1.000000000000000000, -0.0000000000000000000, -0.0000000000000000000 ) ) ;
#209 =( NAMED_UNIT ( * ) SI_UNIT ( $, .STERADIAN. ) SOLID_ANGLE_UNIT ( ) );
#210 = CARTESIAN_POINT ( 'NONE',  ( -12.50000000000000000, -12.50000000000000000, 1.000000000000000000 ) ) ;
#211 = DIRECTION ( 'NONE',  ( -1.000000000000000000, 0.0000000000000000000, 0.0000000000000000000 ) ) ;
#212 = FACE_OUTER_BOUND ( 'NONE', #113, .T. ) ;
#213 = EDGE_LOOP ( 'NONE', ( #136, #222, #105, #115 ) ) ;
#214 = ADVANCED_FACE ( 'NONE', ( #121 ), #38, .F. ) ;
#215 = APPROVAL_ROLE ( '' ) ;
#216 = FACE_OUTER_BOUND ( 'NONE', #231, .T. ) ;
#217 = CLOSED_SHELL ( 'NONE', ( #214, #156, #47, #198, #29, #177 ) ) ;
#218 = VECTOR ( 'NONE', #205, 1000.000000000000000 ) ;
#219 = PERSON_AND_ORGANIZATION ( #152, #183 ) ;
#220 = ORIENTED_EDGE ( 'NONE', *, *, #21, .F. ) ;
#221 = CARTESIAN_POINT ( 'NONE',  ( 12.50000000000000000, -12.50000000000000000, -1.000000000000000000 ) ) ;
#222 = ORIENTED_EDGE ( 'NONE', *, *, #145, .F. ) ;
#223 = DIRECTION ( 'NONE',  ( 1.000000000000000000, 0.0000000000000000000, 0.0000000000000000000 ) ) ;
#224 = CC_DESIGN_PERSON_AND_ORGANIZATION_ASSIGNMENT ( #122, #97, ( #137 ) ) ;
#225 = CARTESIAN_POINT ( 'NONE',  ( 12.50000000000000000, -12.50000000000000000, 1.000000000000000000 ) ) ;
#226 = EDGE_CURVE ( 'NONE', #102, #28, #235, .T. ) ;
#227 = ORIENTED_EDGE ( 'NONE', *, *, #14, .T. ) ;
#228 = MECHANICAL_CONTEXT ( 'NONE', #165, 'mechanical' ) ;
#229 = PLANE ( 'NONE',  #63 ) ;
#230 = DATE_AND_TIME ( #206, #232 ) ;
#231 = EDGE_LOOP ( 'NONE', ( #143, #117, #79, #227 ) ) ;
#232 = LOCAL_TIME ( 10, 22, 16.00000000000000000, #76 ) ;
#233 = PERSON_AND_ORGANIZATION_ROLE ( 'creator' ) ;
#234 = FACE_OUTER_BOUND ( 'NONE', #55, .T. ) ;
#235 = LINE ( 'NONE', #169, #83 ) ;
#236 = APPROVAL ( #8, 'UNSPECIFIED' ) ;
#237 = VECTOR ( 'NONE', #187, 1000.000000000000000 ) ;
ENDSEC;
END-ISO-10303-21;
