ISO-10303-21;
HEADER;
FILE_DESCRIPTION (( 'STEP AP203' ),
    '1' );
FILE_NAME ('Web Model 84460_48063.step',
    '2017-04-03T16:49:49',
    ( '' ),
    ( '' ),
    'SwSTEP 2.0',
    'SolidWorks 2016',
    '' );
FILE_SCHEMA (( 'CONFIG_CONTROL_DESIGN' ));
ENDSEC;

DATA;
#1 = APPROVAL ( #122, 'UNSPECIFIED' ) ;
#2 = ORIENTED_EDGE ( 'NONE', *, *, #133, .F. ) ;
#3 = ORGANIZATION ( 'UNSPECIFIED', 'UNSPECIFIED', '' ) ;
#4 = COORDINATED_UNIVERSAL_TIME_OFFSET ( 5, 0, .BEHIND. ) ;
#5 = APPROVAL_STATUS ( 'not_yet_approved' ) ;
#6 = LOCAL_TIME ( 12, 49, 49.00000000000000000, #73 ) ;
#7 = PLANE ( 'NONE',  #84 ) ;
#8 = SECURITY_CLASSIFICATION_LEVEL ( 'unclassified' ) ;
#9 = PRODUCT_DEFINITION_FORMATION_WITH_SPECIFIED_SOURCE ( 'ANY', '', #40, .NOT_KNOWN. ) ;
#10 = DIRECTION ( 'NONE',  ( 1.000000000000000000, 0.0000000000000000000, 0.0000000000000000000 ) ) ;
#11 = PERSON_AND_ORGANIZATION ( #25, #3 ) ;
#12 = APPROVAL_PERSON_ORGANIZATION ( #82, #131, #105 ) ;
#13 =( NAMED_UNIT ( * ) PLANE_ANGLE_UNIT ( ) SI_UNIT ( $, .RADIAN. ) );
#14 = CYLINDRICAL_SURFACE ( 'NONE', #115, 5.000000000000000000 ) ;
#15 = COORDINATED_UNIVERSAL_TIME_OFFSET ( 5, 0, .BEHIND. ) ;
#16 = CARTESIAN_POINT ( 'NONE',  ( 0.0000000000000000000, 0.0000000000000000000, -1.300000000000000000 ) ) ;
#17 = LINE ( 'NONE', #18, #137 ) ;
#18 = CARTESIAN_POINT ( 'NONE',  ( -5.000000000000000000, 6.123233995736766300E-016, -1.300000000000000000 ) ) ;
#19 = APPROVAL_PERSON_ORGANIZATION ( #88, #45, #52 ) ;
#20 = ADVANCED_FACE ( 'NONE', ( #162 ), #78, .T. ) ;
#21 = ORIENTED_EDGE ( 'NONE', *, *, #121, .F. ) ;
#22 = ORIENTED_EDGE ( 'NONE', *, *, #141, .F. ) ;
#23 = FACE_OUTER_BOUND ( 'NONE', #55, .T. ) ;
#24 = CARTESIAN_POINT ( 'NONE',  ( 0.0000000000000000000, 0.0000000000000000000, 0.0000000000000000000 ) ) ;
#25 = PERSON ( 'UNSPECIFIED', 'UNSPECIFIED', 'UNSPECIFIED', ('UNSPECIFIED'), ('UNSPECIFIED'), ('UNSPECIFIED') ) ;
#26 = DIRECTION ( 'NONE',  ( 0.0000000000000000000, 0.0000000000000000000, 1.000000000000000000 ) ) ;
#27 = APPROVAL_DATE_TIME ( #96, #131 ) ;
#28 = CC_DESIGN_DATE_AND_TIME_ASSIGNMENT ( #46, #120, ( #48 ) ) ;
#29 = CIRCLE ( 'NONE', #173, 5.000000000000000000 ) ;
#30 = PERSON_AND_ORGANIZATION ( #25, #3 ) ;
#31 = VECTOR ( 'NONE', #67, 1000.000000000000000 ) ;
#32 = CARTESIAN_POINT ( 'NONE',  ( 0.0000000000000000000, 0.0000000000000000000, -1.300000000000000000 ) ) ;
#33 = APPROVAL_DATE_TIME ( #101, #45 ) ;
#34 = CC_DESIGN_PERSON_AND_ORGANIZATION_ASSIGNMENT ( #147, #167, ( #48 ) ) ;
#35 = APPLICATION_CONTEXT ( 'configuration controlled 3d designs of mechanical parts and assemblies' ) ;
#36 = APPLICATION_PROTOCOL_DEFINITION ( 'international standard', 'config_control_design', 1994, #170 ) ;
#37 = VERTEX_POINT ( 'NONE', #85 ) ;
#38 = VERTEX_POINT ( 'NONE', #100 ) ;
#39 = DIRECTION ( 'NONE',  ( 0.0000000000000000000, 0.0000000000000000000, 1.000000000000000000 ) ) ;
#40 = PRODUCT ( 'Web Model 84460_48063', 'Web Model 84460_48063', '', ( #168 ) ) ;
#41 = ORIENTED_EDGE ( 'NONE', *, *, #141, .T. ) ;
#42 = CC_DESIGN_APPROVAL ( #45, ( #48 ) ) ;
#43 = CIRCLE ( 'NONE', #127, 5.000000000000000000 ) ;
#44 = CALENDAR_DATE ( 2017, 3, 4 ) ;
#45 = APPROVAL ( #5, 'UNSPECIFIED' ) ;
#46 = DATE_AND_TIME ( #117, #6 ) ;
#47 = ADVANCED_FACE ( 'NONE', ( #126 ), #7, .T. ) ;
#48 = PRODUCT_DEFINITION ( 'UNKNOWN', '', #9, #104 ) ;
#49 = COORDINATED_UNIVERSAL_TIME_OFFSET ( 5, 0, .BEHIND. ) ;
#50 = DIRECTION ( 'NONE',  ( 1.000000000000000000, 0.0000000000000000000, 0.0000000000000000000 ) ) ;
#51 = DIRECTION ( 'NONE',  ( 0.0000000000000000000, 0.0000000000000000000, 1.000000000000000000 ) ) ;
#52 = APPROVAL_ROLE ( '' ) ;
#53 = DIRECTION ( 'NONE',  ( 0.0000000000000000000, 0.0000000000000000000, 1.000000000000000000 ) ) ;
#54 = AXIS2_PLACEMENT_3D ( 'NONE', #99, #113, #91 ) ;
#55 = EDGE_LOOP ( 'NONE', ( #22, #111, #59, #86 ) ) ;
#56 = DIRECTION ( 'NONE',  ( 1.000000000000000000, 0.0000000000000000000, -0.0000000000000000000 ) ) ;
#57 = FACE_OUTER_BOUND ( 'NONE', #123, .T. ) ;
#58 = PERSON_AND_ORGANIZATION_ROLE ( 'design_owner' ) ;
#59 = ORIENTED_EDGE ( 'NONE', *, *, #121, .T. ) ;
#60 = LOCAL_TIME ( 12, 49, 49.00000000000000000, #130 ) ;
#61 = CARTESIAN_POINT ( 'NONE',  ( 0.0000000000000000000, 0.0000000000000000000, -1.300000000000000000 ) ) ;
#62 = CALENDAR_DATE ( 2017, 3, 4 ) ;
#63 = ORIENTED_EDGE ( 'NONE', *, *, #110, .T. ) ;
#64 = LOCAL_TIME ( 12, 49, 49.00000000000000000, #49 ) ;
#65 = CARTESIAN_POINT ( 'NONE',  ( 0.0000000000000000000, 0.0000000000000000000, -1.300000000000000000 ) ) ;
#66 = CIRCLE ( 'NONE', #119, 5.000000000000000000 ) ;
#67 = DIRECTION ( 'NONE',  ( 0.0000000000000000000, 0.0000000000000000000, 1.000000000000000000 ) ) ;
#68 = ADVANCED_BREP_SHAPE_REPRESENTATION ( 'Web Model 84460_48063', ( #129, #54 ), #106 ) ;
#69 = VERTEX_POINT ( 'NONE', #102 ) ;
#70 = ORIENTED_EDGE ( 'NONE', *, *, #160, .T. ) ;
#71 = PERSON_AND_ORGANIZATION ( #25, #3 ) ;
#72 = EDGE_LOOP ( 'NONE', ( #70, #41, #174, #21 ) ) ;
#73 = COORDINATED_UNIVERSAL_TIME_OFFSET ( 5, 0, .BEHIND. ) ;
#74 =( LENGTH_UNIT ( ) NAMED_UNIT ( * ) SI_UNIT ( .MILLI., .METRE. ) );
#75 = CARTESIAN_POINT ( 'NONE',  ( 5.000000000000000000, 0.0000000000000000000, -1.300000000000000000 ) ) ;
#76 = VERTEX_POINT ( 'NONE', #135 ) ;
#77 = CC_DESIGN_APPROVAL ( #1, ( #9 ) ) ;
#78 = CYLINDRICAL_SURFACE ( 'NONE', #90, 5.000000000000000000 ) ;
#79 = ADVANCED_FACE ( 'NONE', ( #57 ), #103, .F. ) ;
#80 = PERSON_AND_ORGANIZATION_ROLE ( 'classification_officer' ) ;
#81 = PRODUCT_DEFINITION_SHAPE ( 'NONE', 'NONE',  #48 ) ;
#82 = PERSON_AND_ORGANIZATION ( #25, #3 ) ;
#83 = DIRECTION ( 'NONE',  ( 1.000000000000000000, 0.0000000000000000000, 0.0000000000000000000 ) ) ;
#84 = AXIS2_PLACEMENT_3D ( 'NONE', #136, #26, #165 ) ;
#85 = CARTESIAN_POINT ( 'NONE',  ( -5.000000000000000000, 6.123233995736766300E-016, -1.300000000000000000 ) ) ;
#86 = ORIENTED_EDGE ( 'NONE', *, *, #110, .F. ) ;
#87 = APPROVAL_PERSON_ORGANIZATION ( #159, #1, #153 ) ;
#88 = PERSON_AND_ORGANIZATION ( #25, #3 ) ;
#89 = PRODUCT_RELATED_PRODUCT_CATEGORY ( 'detail', '', ( #40 ) ) ;
#90 = AXIS2_PLACEMENT_3D ( 'NONE', #65, #53, #83 ) ;
#91 = DIRECTION ( 'NONE',  ( 1.000000000000000000, 0.0000000000000000000, 0.0000000000000000000 ) ) ;
#92 = EDGE_LOOP ( 'NONE', ( #128, #63 ) ) ;
#93 = CARTESIAN_POINT ( 'NONE',  ( 0.0000000000000000000, 0.0000000000000000000, -1.300000000000000000 ) ) ;
#94 = CC_DESIGN_PERSON_AND_ORGANIZATION_ASSIGNMENT ( #11, #58, ( #40 ) ) ;
#95 = CC_DESIGN_PERSON_AND_ORGANIZATION_ASSIGNMENT ( #30, #138, ( #9 ) ) ;
#96 = DATE_AND_TIME ( #164, #60 ) ;
#97 = CLOSED_SHELL ( 'NONE', ( #20, #108, #79, #47 ) ) ;
#98 = APPROVAL_DATE_TIME ( #166, #1 ) ;
#99 = CARTESIAN_POINT ( 'NONE',  ( 0.0000000000000000000, 0.0000000000000000000, 0.0000000000000000000 ) ) ;
#100 = CARTESIAN_POINT ( 'NONE',  ( 5.000000000000000000, 0.0000000000000000000, -1.300000000000000000 ) ) ;
#101 = DATE_AND_TIME ( #169, #64 ) ;
#102 = CARTESIAN_POINT ( 'NONE',  ( 5.000000000000000000, 0.0000000000000000000, 0.0000000000000000000 ) ) ;
#103 = PLANE ( 'NONE',  #116 ) ;
#104 = DESIGN_CONTEXT ( 'detailed design', #170, 'design' ) ;
#105 = APPROVAL_ROLE ( '' ) ;
#106 =( GEOMETRIC_REPRESENTATION_CONTEXT ( 3 ) GLOBAL_UNCERTAINTY_ASSIGNED_CONTEXT ( ( #124 ) ) GLOBAL_UNIT_ASSIGNED_CONTEXT ( ( #74, #13, #150 ) ) REPRESENTATION_CONTEXT ( 'NONE', 'WORKASPACE' ) );
#107 = CC_DESIGN_SECURITY_CLASSIFICATION ( #155, ( #9 ) ) ;
#108 = ADVANCED_FACE ( 'NONE', ( #23 ), #14, .T. ) ;
#109 = CC_DESIGN_APPROVAL ( #131, ( #155 ) ) ;
#110 = EDGE_CURVE ( 'NONE', #76, #69, #43, .T. ) ;
#111 = ORIENTED_EDGE ( 'NONE', *, *, #133, .T. ) ;
#112 = PERSON_AND_ORGANIZATION_ROLE ( 'design_supplier' ) ;
#113 = DIRECTION ( 'NONE',  ( 0.0000000000000000000, 0.0000000000000000000, 1.000000000000000000 ) ) ;
#114 = LOCAL_TIME ( 12, 49, 49.00000000000000000, #4 ) ;
#115 = AXIS2_PLACEMENT_3D ( 'NONE', #61, #161, #10 ) ;
#116 = AXIS2_PLACEMENT_3D ( 'NONE', #93, #156, #56 ) ;
#117 = CALENDAR_DATE ( 2017, 3, 4 ) ;
#118 = CARTESIAN_POINT ( 'NONE',  ( 0.0000000000000000000, 0.0000000000000000000, 0.0000000000000000000 ) ) ;
#119 = AXIS2_PLACEMENT_3D ( 'NONE', #16, #51, #149 ) ;
#120 = DATE_TIME_ROLE ( 'creation_date' ) ;
#121 = EDGE_CURVE ( 'NONE', #38, #69, #154, .T. ) ;
#122 = APPROVAL_STATUS ( 'not_yet_approved' ) ;
#123 = EDGE_LOOP ( 'NONE', ( #157, #2 ) ) ;
#124 = UNCERTAINTY_MEASURE_WITH_UNIT (LENGTH_MEASURE( 1.000000000000000100E-005 ), #74, 'distance_accuracy_value', 'NONE');
#125 = DIRECTION ( 'NONE',  ( 0.0000000000000000000, 0.0000000000000000000, 1.000000000000000000 ) ) ;
#126 = FACE_OUTER_BOUND ( 'NONE', #92, .T. ) ;
#127 = AXIS2_PLACEMENT_3D ( 'NONE', #118, #171, #50 ) ;
#128 = ORIENTED_EDGE ( 'NONE', *, *, #151, .T. ) ;
#129 = MANIFOLD_SOLID_BREP ( 'Extrude1', #97 ) ;
#130 = COORDINATED_UNIVERSAL_TIME_OFFSET ( 5, 0, .BEHIND. ) ;
#131 = APPROVAL ( #143, 'UNSPECIFIED' ) ;
#132 = LOCAL_TIME ( 12, 49, 49.00000000000000000, #15 ) ;
#133 = EDGE_CURVE ( 'NONE', #37, #38, #163, .T. ) ;
#134 = APPLICATION_PROTOCOL_DEFINITION ( 'international standard', 'config_control_design', 1994, #35 ) ;
#135 = CARTESIAN_POINT ( 'NONE',  ( -5.000000000000000000, 6.123233995736766300E-016, 0.0000000000000000000 ) ) ;
#136 = CARTESIAN_POINT ( 'NONE',  ( 0.0000000000000000000, 0.0000000000000000000, 0.0000000000000000000 ) ) ;
#137 = VECTOR ( 'NONE', #39, 1000.000000000000000 ) ;
#138 = PERSON_AND_ORGANIZATION_ROLE ( 'creator' ) ;
#139 = CC_DESIGN_DATE_AND_TIME_ASSIGNMENT ( #158, #146, ( #155 ) ) ;
#140 = DIRECTION ( 'NONE',  ( 0.0000000000000000000, 0.0000000000000000000, 1.000000000000000000 ) ) ;
#141 = EDGE_CURVE ( 'NONE', #37, #76, #17, .T. ) ;
#142 = AXIS2_PLACEMENT_3D ( 'NONE', #32, #140, #145 ) ;
#143 = APPROVAL_STATUS ( 'not_yet_approved' ) ;
#144 = PERSON_AND_ORGANIZATION ( #25, #3 ) ;
#145 = DIRECTION ( 'NONE',  ( 1.000000000000000000, 0.0000000000000000000, 0.0000000000000000000 ) ) ;
#146 = DATE_TIME_ROLE ( 'classification_date' ) ;
#147 = PERSON_AND_ORGANIZATION ( #25, #3 ) ;
#148 = CC_DESIGN_PERSON_AND_ORGANIZATION_ASSIGNMENT ( #71, #80, ( #155 ) ) ;
#149 = DIRECTION ( 'NONE',  ( 1.000000000000000000, 0.0000000000000000000, 0.0000000000000000000 ) ) ;
#150 =( NAMED_UNIT ( * ) SI_UNIT ( $, .STERADIAN. ) SOLID_ANGLE_UNIT ( ) );
#151 = EDGE_CURVE ( 'NONE', #69, #76, #29, .T. ) ;
#152 = SHAPE_DEFINITION_REPRESENTATION ( #81, #68 ) ;
#153 = APPROVAL_ROLE ( '' ) ;
#154 = LINE ( 'NONE', #75, #31 ) ;
#155 = SECURITY_CLASSIFICATION ( '', '', #8 ) ;
#156 = DIRECTION ( 'NONE',  ( 0.0000000000000000000, 0.0000000000000000000, 1.000000000000000000 ) ) ;
#157 = ORIENTED_EDGE ( 'NONE', *, *, #160, .F. ) ;
#158 = DATE_AND_TIME ( #44, #114 ) ;
#159 = PERSON_AND_ORGANIZATION ( #25, #3 ) ;
#160 = EDGE_CURVE ( 'NONE', #38, #37, #66, .T. ) ;
#161 = DIRECTION ( 'NONE',  ( 0.0000000000000000000, 0.0000000000000000000, 1.000000000000000000 ) ) ;
#162 = FACE_OUTER_BOUND ( 'NONE', #72, .T. ) ;
#163 = CIRCLE ( 'NONE', #142, 5.000000000000000000 ) ;
#164 = CALENDAR_DATE ( 2017, 3, 4 ) ;
#165 = DIRECTION ( 'NONE',  ( 1.000000000000000000, 0.0000000000000000000, -0.0000000000000000000 ) ) ;
#166 = DATE_AND_TIME ( #62, #132 ) ;
#167 = PERSON_AND_ORGANIZATION_ROLE ( 'creator' ) ;
#168 = MECHANICAL_CONTEXT ( 'NONE', #35, 'mechanical' ) ;
#169 = CALENDAR_DATE ( 2017, 3, 4 ) ;
#170 = APPLICATION_CONTEXT ( 'configuration controlled 3d designs of mechanical parts and assemblies' ) ;
#171 = DIRECTION ( 'NONE',  ( 0.0000000000000000000, 0.0000000000000000000, 1.000000000000000000 ) ) ;
#172 = CC_DESIGN_PERSON_AND_ORGANIZATION_ASSIGNMENT ( #144, #112, ( #9 ) ) ;
#173 = AXIS2_PLACEMENT_3D ( 'NONE', #24, #125, #175 ) ;
#174 = ORIENTED_EDGE ( 'NONE', *, *, #151, .F. ) ;
#175 = DIRECTION ( 'NONE',  ( 1.000000000000000000, 0.0000000000000000000, 0.0000000000000000000 ) ) ;
ENDSEC;
END-ISO-10303-21;
