ISO-10303-21;
HEADER;
FILE_DESCRIPTION (( 'STEP AP203' ),
    '1' );
FILE_NAME ('Web Model 34428_13325.step',
    '2020-11-03T22:10:44',
    ( '' ),
    ( '' ),
    'SwSTEP 2.0',
    'SolidWorks 2018',
    '' );
FILE_SCHEMA (( 'CONFIG_CONTROL_DESIGN' ));
ENDSEC;

DATA;
#1 = CYLINDRICAL_SURFACE ( 'NONE', #155, 25.00000000000000000 ) ;
#2 = CARTESIAN_POINT ( 'NONE',  ( 0.0000000000000000000, 0.0000000000000000000, 0.0000000000000000000 ) ) ;
#3 = DIRECTION ( 'NONE',  ( 0.0000000000000000000, 0.0000000000000000000, 1.000000000000000000 ) ) ;
#4 = COORDINATED_UNIVERSAL_TIME_OFFSET ( 5, 0, .BEHIND. ) ;
#5 = PERSON_AND_ORGANIZATION ( #16, #9 ) ;
#6 = APPROVAL_ROLE ( '' ) ;
#7 = DATE_AND_TIME ( #133, #99 ) ;
#8 = CC_DESIGN_APPROVAL ( #161, ( #150 ) ) ;
#9 = ORGANIZATION ( 'UNSPECIFIED', 'UNSPECIFIED', '' ) ;
#10 = CC_DESIGN_PERSON_AND_ORGANIZATION_ASSIGNMENT ( #68, #116, ( #150 ) ) ;
#11 = CARTESIAN_POINT ( 'NONE',  ( 0.0000000000000000000, 0.0000000000000000000, 2.000000000000000000 ) ) ;
#12 = DIRECTION ( 'NONE',  ( 1.000000000000000000, 0.0000000000000000000, 0.0000000000000000000 ) ) ;
#13 = VECTOR ( 'NONE', #44, 1000.000000000000000 ) ;
#14 = EDGE_CURVE ( 'NONE', #15, #118, #120, .T. ) ;
#15 = VERTEX_POINT ( 'NONE', #26 ) ;
#16 = PERSON ( 'UNSPECIFIED', 'UNSPECIFIED', 'UNSPECIFIED', ('UNSPECIFIED'), ('UNSPECIFIED'), ('UNSPECIFIED') ) ;
#17 = CC_DESIGN_SECURITY_CLASSIFICATION ( #38, ( #150 ) ) ;
#18 = PERSON_AND_ORGANIZATION_ROLE ( 'creator' ) ;
#19 = DATE_TIME_ROLE ( 'classification_date' ) ;
#20 = CC_DESIGN_APPROVAL ( #56, ( #38 ) ) ;
#21 = ORIENTED_EDGE ( 'NONE', *, *, #148, .T. ) ;
#22 = CLOSED_SHELL ( 'NONE', ( #144, #86, #139, #126 ) ) ;
#23 = DIRECTION ( 'NONE',  ( -0.0000000000000000000, -0.0000000000000000000, -1.000000000000000000 ) ) ;
#24 = VECTOR ( 'NONE', #23, 1000.000000000000000 ) ;
#25 = ORIENTED_EDGE ( 'NONE', *, *, #134, .T. ) ;
#26 = CARTESIAN_POINT ( 'NONE',  ( -25.00000000000000000, 0.0000000000000000000, 2.000000000000000000 ) ) ;
#27 = DIRECTION ( 'NONE',  ( -1.000000000000000000, 0.0000000000000000000, 0.0000000000000000000 ) ) ;
#28 = CC_DESIGN_APPROVAL ( #164, ( #83 ) ) ;
#29 = DIRECTION ( 'NONE',  ( -0.0000000000000000000, -0.0000000000000000000, -1.000000000000000000 ) ) ;
#30 = DIRECTION ( 'NONE',  ( 1.000000000000000000, 0.0000000000000000000, 0.0000000000000000000 ) ) ;
#31 = DATE_AND_TIME ( #115, #130 ) ;
#32 = PERSON_AND_ORGANIZATION_ROLE ( 'design_owner' ) ;
#33 = PERSON_AND_ORGANIZATION ( #16, #9 ) ;
#34 = AXIS2_PLACEMENT_3D ( 'NONE', #95, #106, #66 ) ;
#35 = APPROVAL_PERSON_ORGANIZATION ( #141, #56, #6 ) ;
#36 = CC_DESIGN_PERSON_AND_ORGANIZATION_ASSIGNMENT ( #43, #140, ( #150 ) ) ;
#37 = SHAPE_DEFINITION_REPRESENTATION ( #147, #121 ) ;
#38 = SECURITY_CLASSIFICATION ( '', '', #72 ) ;
#39 = CALENDAR_DATE ( 2020, 3, 11 ) ;
#40 = PERSON_AND_ORGANIZATION ( #16, #9 ) ;
#41 = VERTEX_POINT ( 'NONE', #78 ) ;
#42 = CARTESIAN_POINT ( 'NONE',  ( 0.0000000000000000000, 0.0000000000000000000, 0.0000000000000000000 ) ) ;
#43 = PERSON_AND_ORGANIZATION ( #16, #9 ) ;
#44 = DIRECTION ( 'NONE',  ( -0.0000000000000000000, -0.0000000000000000000, -1.000000000000000000 ) ) ;
#45 = DIRECTION ( 'NONE',  ( 0.0000000000000000000, 0.0000000000000000000, 1.000000000000000000 ) ) ;
#46 = APPROVAL_STATUS ( 'not_yet_approved' ) ;
#47 = COORDINATED_UNIVERSAL_TIME_OFFSET ( 5, 0, .BEHIND. ) ;
#48 = ORIENTED_EDGE ( 'NONE', *, *, #129, .F. ) ;
#49 = EDGE_LOOP ( 'NONE', ( #145, #131 ) ) ;
#50 = PRODUCT ( 'Web Model 34428_13325', 'Web Model 34428_13325', '', ( #109 ) ) ;
#51 = APPROVAL_STATUS ( 'not_yet_approved' ) ;
#52 = LINE ( 'NONE', #55, #13 ) ;
#53 = AXIS2_PLACEMENT_3D ( 'NONE', #122, #167, #137 ) ;
#54 = ORIENTED_EDGE ( 'NONE', *, *, #91, .T. ) ;
#55 = CARTESIAN_POINT ( 'NONE',  ( 25.00000000000000000, 3.061616997868383043E-15, 2.000000000000000000 ) ) ;
#56 = APPROVAL ( #87, 'UNSPECIFIED' ) ;
#57 = DIRECTION ( 'NONE',  ( 1.000000000000000000, 0.0000000000000000000, 0.0000000000000000000 ) ) ;
#58 = MANIFOLD_SOLID_BREP ( 'Boss-Extrude1', #22 ) ;
#59 = EDGE_LOOP ( 'NONE', ( #65, #103 ) ) ;
#60 = APPLICATION_CONTEXT ( 'configuration controlled 3d designs of mechanical parts and assemblies' ) ;
#61 = AXIS2_PLACEMENT_3D ( 'NONE', #11, #29, #27 ) ;
#62 = FACE_OUTER_BOUND ( 'NONE', #70, .T. ) ;
#63 = APPROVAL_DATE_TIME ( #171, #164 ) ;
#64 = PERSON_AND_ORGANIZATION ( #16, #9 ) ;
#65 = ORIENTED_EDGE ( 'NONE', *, *, #14, .T. ) ;
#66 = DIRECTION ( 'NONE',  ( 1.000000000000000000, 0.0000000000000000000, 0.0000000000000000000 ) ) ;
#67 = CARTESIAN_POINT ( 'NONE',  ( 25.00000000000000000, 3.061616997868383043E-15, 2.000000000000000000 ) ) ;
#68 = PERSON_AND_ORGANIZATION ( #16, #9 ) ;
#69 = DIRECTION ( 'NONE',  ( -0.0000000000000000000, -0.0000000000000000000, -1.000000000000000000 ) ) ;
#70 = EDGE_LOOP ( 'NONE', ( #48, #54, #25, #97 ) ) ;
#71 = PERSON_AND_ORGANIZATION ( #16, #9 ) ;
#72 = SECURITY_CLASSIFICATION_LEVEL ( 'unclassified' ) ;
#73 = APPROVAL_DATE_TIME ( #7, #56 ) ;
#74 = CC_DESIGN_PERSON_AND_ORGANIZATION_ASSIGNMENT ( #5, #162, ( #38 ) ) ;
#75 = APPROVAL_DATE_TIME ( #31, #161 ) ;
#76 = CC_DESIGN_DATE_AND_TIME_ASSIGNMENT ( #174, #19, ( #38 ) ) ;
#77 = CALENDAR_DATE ( 2020, 3, 11 ) ;
#78 = CARTESIAN_POINT ( 'NONE',  ( 25.00000000000000000, 3.061616997868383043E-15, 0.0000000000000000000 ) ) ;
#79 =( LENGTH_UNIT ( ) NAMED_UNIT ( * ) SI_UNIT ( .MILLI., .METRE. ) );
#80 = FACE_OUTER_BOUND ( 'NONE', #49, .T. ) ;
#81 = APPLICATION_PROTOCOL_DEFINITION ( 'international standard', 'config_control_design', 1994, #60 ) ;
#82 = CIRCLE ( 'NONE', #132, 25.00000000000000000 ) ;
#83 = PRODUCT_DEFINITION ( 'UNKNOWN', '', #150, #143 ) ;
#84 = CIRCLE ( 'NONE', #85, 25.00000000000000000 ) ;
#85 = AXIS2_PLACEMENT_3D ( 'NONE', #153, #105, #30 ) ;
#86 = ADVANCED_FACE ( 'NONE', ( #90 ), #158, .T. ) ;
#87 = APPROVAL_STATUS ( 'not_yet_approved' ) ;
#88 = CC_DESIGN_PERSON_AND_ORGANIZATION_ASSIGNMENT ( #33, #18, ( #83 ) ) ;
#89 = ORIENTED_EDGE ( 'NONE', *, *, #146, .T. ) ;
#90 = FACE_OUTER_BOUND ( 'NONE', #93, .T. ) ;
#91 = EDGE_CURVE ( 'NONE', #118, #41, #52, .T. ) ;
#92 = CARTESIAN_POINT ( 'NONE',  ( -25.00000000000000000, 0.0000000000000000000, 2.000000000000000000 ) ) ;
#93 = EDGE_LOOP ( 'NONE', ( #128, #157, #89, #21 ) ) ;
#94 = DIRECTION ( 'NONE',  ( 0.0000000000000000000, 0.0000000000000000000, 1.000000000000000000 ) ) ;
#95 = CARTESIAN_POINT ( 'NONE',  ( 0.0000000000000000000, 0.0000000000000000000, 2.000000000000000000 ) ) ;
#96 = DIRECTION ( 'NONE',  ( 1.000000000000000000, 0.0000000000000000000, -0.0000000000000000000 ) ) ;
#97 = ORIENTED_EDGE ( 'NONE', *, *, #146, .F. ) ;
#98 =( NAMED_UNIT ( * ) SI_UNIT ( $, .STERADIAN. ) SOLID_ANGLE_UNIT ( ) );
#99 = LOCAL_TIME ( 17, 10, 44.00000000000000000, #175 ) ;
#100 = DATE_TIME_ROLE ( 'creation_date' ) ;
#101 = CC_DESIGN_PERSON_AND_ORGANIZATION_ASSIGNMENT ( #64, #32, ( #50 ) ) ;
#102 = DATE_AND_TIME ( #77, #135 ) ;
#103 = ORIENTED_EDGE ( 'NONE', *, *, #129, .T. ) ;
#104 = CARTESIAN_POINT ( 'NONE',  ( 0.0000000000000000000, 0.0000000000000000000, 0.0000000000000000000 ) ) ;
#105 = DIRECTION ( 'NONE',  ( 0.0000000000000000000, 0.0000000000000000000, 1.000000000000000000 ) ) ;
#106 = DIRECTION ( 'NONE',  ( 0.0000000000000000000, 0.0000000000000000000, 1.000000000000000000 ) ) ;
#107 = APPROVAL_PERSON_ORGANIZATION ( #40, #164, #160 ) ;
#108 = CARTESIAN_POINT ( 'NONE',  ( -25.00000000000000000, 0.0000000000000000000, 0.0000000000000000000 ) ) ;
#109 = MECHANICAL_CONTEXT ( 'NONE', #60, 'mechanical' ) ;
#110 = AXIS2_PLACEMENT_3D ( 'NONE', #2, #3, #124 ) ;
#111 = VERTEX_POINT ( 'NONE', #108 ) ;
#112 = APPLICATION_CONTEXT ( 'configuration controlled 3d designs of mechanical parts and assemblies' ) ;
#113 =( NAMED_UNIT ( * ) PLANE_ANGLE_UNIT ( ) SI_UNIT ( $, .RADIAN. ) );
#114 = PRODUCT_RELATED_PRODUCT_CATEGORY ( 'detail', '', ( #50 ) ) ;
#115 = CALENDAR_DATE ( 2020, 3, 11 ) ;
#116 = PERSON_AND_ORGANIZATION_ROLE ( 'design_supplier' ) ;
#117 = CALENDAR_DATE ( 2020, 3, 11 ) ;
#118 = VERTEX_POINT ( 'NONE', #67 ) ;
#119 = CARTESIAN_POINT ( 'NONE',  ( 0.0000000000000000000, 0.0000000000000000000, 2.000000000000000000 ) ) ;
#120 = CIRCLE ( 'NONE', #34, 25.00000000000000000 ) ;
#121 = ADVANCED_BREP_SHAPE_REPRESENTATION ( 'Web Model 34428_13325', ( #58, #127 ), #142 ) ;
#122 = CARTESIAN_POINT ( 'NONE',  ( 0.0000000000000000000, 0.0000000000000000000, 0.0000000000000000000 ) ) ;
#123 = AXIS2_PLACEMENT_3D ( 'NONE', #119, #45, #96 ) ;
#124 = DIRECTION ( 'NONE',  ( 1.000000000000000000, 0.0000000000000000000, 0.0000000000000000000 ) ) ;
#125 = APPLICATION_PROTOCOL_DEFINITION ( 'international standard', 'config_control_design', 1994, #112 ) ;
#126 = ADVANCED_FACE ( 'NONE', ( #80 ), #168, .F. ) ;
#127 = AXIS2_PLACEMENT_3D ( 'NONE', #42, #94, #57 ) ;
#128 = ORIENTED_EDGE ( 'NONE', *, *, #91, .F. ) ;
#129 = EDGE_CURVE ( 'NONE', #118, #15, #84, .T. ) ;
#130 = LOCAL_TIME ( 17, 10, 44.00000000000000000, #47 ) ;
#131 = ORIENTED_EDGE ( 'NONE', *, *, #134, .F. ) ;
#132 = AXIS2_PLACEMENT_3D ( 'NONE', #104, #136, #12 ) ;
#133 = CALENDAR_DATE ( 2020, 3, 11 ) ;
#134 = EDGE_CURVE ( 'NONE', #41, #111, #154, .T. ) ;
#135 = LOCAL_TIME ( 17, 10, 44.00000000000000000, #4 ) ;
#136 = DIRECTION ( 'NONE',  ( 0.0000000000000000000, 0.0000000000000000000, 1.000000000000000000 ) ) ;
#137 = DIRECTION ( 'NONE',  ( 1.000000000000000000, 0.0000000000000000000, -0.0000000000000000000 ) ) ;
#138 = COORDINATED_UNIVERSAL_TIME_OFFSET ( 5, 0, .BEHIND. ) ;
#139 = ADVANCED_FACE ( 'NONE', ( #163 ), #152, .T. ) ;
#140 = PERSON_AND_ORGANIZATION_ROLE ( 'creator' ) ;
#141 = PERSON_AND_ORGANIZATION ( #16, #9 ) ;
#142 =( GEOMETRIC_REPRESENTATION_CONTEXT ( 3 ) GLOBAL_UNCERTAINTY_ASSIGNED_CONTEXT ( ( #151 ) ) GLOBAL_UNIT_ASSIGNED_CONTEXT ( ( #79, #113, #98 ) ) REPRESENTATION_CONTEXT ( 'NONE', 'WORKASPACE' ) );
#143 = DESIGN_CONTEXT ( 'detailed design', #112, 'design' ) ;
#144 = ADVANCED_FACE ( 'NONE', ( #62 ), #1, .T. ) ;
#145 = ORIENTED_EDGE ( 'NONE', *, *, #148, .F. ) ;
#146 = EDGE_CURVE ( 'NONE', #15, #111, #172, .T. ) ;
#147 = PRODUCT_DEFINITION_SHAPE ( 'NONE', 'NONE',  #83 ) ;
#148 = EDGE_CURVE ( 'NONE', #111, #41, #82, .T. ) ;
#149 = LOCAL_TIME ( 17, 10, 44.00000000000000000, #138 ) ;
#150 = PRODUCT_DEFINITION_FORMATION_WITH_SPECIFIED_SOURCE ( 'ANY', '', #50, .NOT_KNOWN. ) ;
#151 = UNCERTAINTY_MEASURE_WITH_UNIT (LENGTH_MEASURE( 1.000000000000000082E-05 ), #79, 'distance_accuracy_value', 'NONE');
#152 = PLANE ( 'NONE',  #123 ) ;
#153 = CARTESIAN_POINT ( 'NONE',  ( 0.0000000000000000000, 0.0000000000000000000, 2.000000000000000000 ) ) ;
#154 = CIRCLE ( 'NONE', #110, 25.00000000000000000 ) ;
#155 = AXIS2_PLACEMENT_3D ( 'NONE', #169, #69, #170 ) ;
#156 = COORDINATED_UNIVERSAL_TIME_OFFSET ( 5, 0, .BEHIND. ) ;
#157 = ORIENTED_EDGE ( 'NONE', *, *, #14, .F. ) ;
#158 = CYLINDRICAL_SURFACE ( 'NONE', #61, 25.00000000000000000 ) ;
#159 = APPROVAL_ROLE ( '' ) ;
#160 = APPROVAL_ROLE ( '' ) ;
#161 = APPROVAL ( #51, 'UNSPECIFIED' ) ;
#162 = PERSON_AND_ORGANIZATION_ROLE ( 'classification_officer' ) ;
#163 = FACE_OUTER_BOUND ( 'NONE', #59, .T. ) ;
#164 = APPROVAL ( #46, 'UNSPECIFIED' ) ;
#165 = LOCAL_TIME ( 17, 10, 44.00000000000000000, #156 ) ;
#166 = CC_DESIGN_DATE_AND_TIME_ASSIGNMENT ( #102, #100, ( #83 ) ) ;
#167 = DIRECTION ( 'NONE',  ( 0.0000000000000000000, 0.0000000000000000000, 1.000000000000000000 ) ) ;
#168 = PLANE ( 'NONE',  #53 ) ;
#169 = CARTESIAN_POINT ( 'NONE',  ( 0.0000000000000000000, 0.0000000000000000000, 2.000000000000000000 ) ) ;
#170 = DIRECTION ( 'NONE',  ( -1.000000000000000000, 0.0000000000000000000, 0.0000000000000000000 ) ) ;
#171 = DATE_AND_TIME ( #117, #165 ) ;
#172 = LINE ( 'NONE', #92, #24 ) ;
#173 = APPROVAL_PERSON_ORGANIZATION ( #71, #161, #159 ) ;
#174 = DATE_AND_TIME ( #39, #149 ) ;
#175 = COORDINATED_UNIVERSAL_TIME_OFFSET ( 5, 0, .BEHIND. ) ;
ENDSEC;
END-ISO-10303-21;
