ISO-10303-21;
HEADER;
FILE_DESCRIPTION (( 'STEP AP203' ),
    '1' );
FILE_NAME ('Web Model 19837_19861.step',
    '2022-04-06T15:04:43',
    ( 'WC' ),
    ( 'Windows Central' ),
    'SwSTEP 2.0',
    'SolidWorks 2021',
    '' );
FILE_SCHEMA (( 'CONFIG_CONTROL_DESIGN' ));
ENDSEC;

DATA;
#1 = AXIS2_PLACEMENT_3D ( 'NONE', #82, #39, #95 ) ;
#2 = UNCERTAINTY_MEASURE_WITH_UNIT (LENGTH_MEASURE( 1.000000000000000082E-05 ), #122, 'distance_accuracy_value', 'NONE');
#3 = EDGE_CURVE ( 'NONE', #87, #17, #40, .T. ) ;
#4 = DIRECTION ( 'NONE',  ( -0.000000000000000000, -0.000000000000000000, -1.000000000000000000 ) ) ;
#5 = ORIENTED_EDGE ( 'NONE', *, *, #140, .T. ) ;
#6 = ORIENTED_EDGE ( 'NONE', *, *, #3, .T. ) ;
#7 = FACE_OUTER_BOUND ( 'NONE', #163, .T. ) ;
#8 = CARTESIAN_POINT ( 'NONE',  ( 0.000000000000000000, 0.000000000000000000, 4.000000000000000000 ) ) ;
#9 = EDGE_CURVE ( 'NONE', #99, #87, #56, .T. ) ;
#10 = PERSON_AND_ORGANIZATION ( #120, #158 ) ;
#11 = CC_DESIGN_APPROVAL ( #154, ( #148 ) ) ;
#12 = ADVANCED_FACE ( 'NONE', ( #15 ), #30, .F. ) ;
#13 = LOCAL_TIME ( 11, 4, 43.00000000000000000, #38 ) ;
#14 = CC_DESIGN_PERSON_AND_ORGANIZATION_ASSIGNMENT ( #165, #36, ( #148 ) ) ;
#15 = FACE_OUTER_BOUND ( 'NONE', #153, .T. ) ;
#16 = CARTESIAN_POINT ( 'NONE',  ( 0.000000000000000000, 0.000000000000000000, 4.000000000000000000 ) ) ;
#17 = VERTEX_POINT ( 'NONE', #29 ) ;
#18 = DIRECTION ( 'NONE',  ( 1.000000000000000000, 0.000000000000000000, 0.000000000000000000 ) ) ;
#19 = EDGE_LOOP ( 'NONE', ( #164, #6, #33, #47 ) ) ;
#20 = APPROVAL_PERSON_ORGANIZATION ( #80, #167, #55 ) ;
#21 = DIRECTION ( 'NONE',  ( 1.000000000000000000, 0.000000000000000000, 0.000000000000000000 ) ) ;
#22 = DIRECTION ( 'NONE',  ( 1.000000000000000000, 0.000000000000000000, 0.000000000000000000 ) ) ;
#23 = CIRCLE ( 'NONE', #161, 12.50000000000000000 ) ;
#24 = CALENDAR_DATE ( 2022, 6, 4 ) ;
#25 = FACE_OUTER_BOUND ( 'NONE', #110, .T. ) ;
#26 = APPROVAL ( #84, 'UNSPECIFIED' ) ;
#27 = CIRCLE ( 'NONE', #146, 12.50000000000000000 ) ;
#28 = DATE_AND_TIME ( #24, #13 ) ;
#29 = CARTESIAN_POINT ( 'NONE',  ( 12.50000000000000000, 1.530808498934191521E-15, 0.000000000000000000 ) ) ;
#30 = PLANE ( 'NONE',  #1 ) ;
#31 = AXIS2_PLACEMENT_3D ( 'NONE', #150, #81, #135 ) ;
#32 = APPROVAL_ROLE ( '' ) ;
#33 = ORIENTED_EDGE ( 'NONE', *, *, #107, .T. ) ;
#34 = CARTESIAN_POINT ( 'NONE',  ( 0.000000000000000000, 0.000000000000000000, 0.000000000000000000 ) ) ;
#35 = CARTESIAN_POINT ( 'NONE',  ( 0.000000000000000000, 0.000000000000000000, 0.000000000000000000 ) ) ;
#36 = PERSON_AND_ORGANIZATION_ROLE ( 'creator' ) ;
#37 = APPLICATION_CONTEXT ( 'configuration controlled 3d designs of mechanical parts and assemblies' ) ;
#38 = COORDINATED_UNIVERSAL_TIME_OFFSET ( 5, 0, .BEHIND. ) ;
#39 = DIRECTION ( 'NONE',  ( 0.000000000000000000, 0.000000000000000000, 1.000000000000000000 ) ) ;
#40 = LINE ( 'NONE', #147, #60 ) ;
#41 = CC_DESIGN_APPROVAL ( #167, ( #159 ) ) ;
#42 = CC_DESIGN_PERSON_AND_ORGANIZATION_ASSIGNMENT ( #65, #78, ( #106 ) ) ;
#43 = PLANE ( 'NONE',  #54 ) ;
#44 = DIRECTION ( 'NONE',  ( -1.000000000000000000, 0.000000000000000000, 0.000000000000000000 ) ) ;
#45 = DIRECTION ( 'NONE',  ( 1.000000000000000000, 0.000000000000000000, 0.000000000000000000 ) ) ;
#46 = VERTEX_POINT ( 'NONE', #66 ) ;
#47 = ORIENTED_EDGE ( 'NONE', *, *, #102, .F. ) ;
#48 = DIRECTION ( 'NONE',  ( -1.000000000000000000, 0.000000000000000000, 0.000000000000000000 ) ) ;
#49 =( GEOMETRIC_REPRESENTATION_CONTEXT ( 3 ) GLOBAL_UNCERTAINTY_ASSIGNED_CONTEXT ( ( #2 ) ) GLOBAL_UNIT_ASSIGNED_CONTEXT ( ( #122, #62, #76 ) ) REPRESENTATION_CONTEXT ( 'NONE', 'WORKASPACE' ) );
#50 = FACE_OUTER_BOUND ( 'NONE', #19, .T. ) ;
#51 = PRODUCT_DEFINITION_SHAPE ( 'NONE', 'NONE',  #148 ) ;
#52 = COORDINATED_UNIVERSAL_TIME_OFFSET ( 5, 0, .BEHIND. ) ;
#53 = SHAPE_DEFINITION_REPRESENTATION ( #51, #97 ) ;
#54 = AXIS2_PLACEMENT_3D ( 'NONE', #121, #58, #162 ) ;
#55 = APPROVAL_ROLE ( '' ) ;
#56 = CIRCLE ( 'NONE', #31, 12.50000000000000000 ) ;
#57 = CC_DESIGN_PERSON_AND_ORGANIZATION_ASSIGNMENT ( #141, #92, ( #159 ) ) ;
#58 = DIRECTION ( 'NONE',  ( 0.000000000000000000, 0.000000000000000000, 1.000000000000000000 ) ) ;
#59 = CARTESIAN_POINT ( 'NONE',  ( 0.000000000000000000, 0.000000000000000000, 0.000000000000000000 ) ) ;
#60 = VECTOR ( 'NONE', #67, 1000.000000000000000 ) ;
#61 = ORIENTED_EDGE ( 'NONE', *, *, #3, .F. ) ;
#62 =( NAMED_UNIT ( * ) PLANE_ANGLE_UNIT ( ) SI_UNIT ( $, .RADIAN. ) );
#63 = ORIENTED_EDGE ( 'NONE', *, *, #175, .F. ) ;
#64 = LOCAL_TIME ( 11, 4, 43.00000000000000000, #91 ) ;
#65 = PERSON_AND_ORGANIZATION ( #120, #158 ) ;
#66 = CARTESIAN_POINT ( 'NONE',  ( -12.50000000000000000, 0.000000000000000000, 0.000000000000000000 ) ) ;
#67 = DIRECTION ( 'NONE',  ( -0.000000000000000000, -0.000000000000000000, -1.000000000000000000 ) ) ;
#68 = AXIS2_PLACEMENT_3D ( 'NONE', #8, #4, #44 ) ;
#69 = PERSON_AND_ORGANIZATION ( #120, #158 ) ;
#70 = PERSON_AND_ORGANIZATION_ROLE ( 'design_owner' ) ;
#71 = ORIENTED_EDGE ( 'NONE', *, *, #175, .T. ) ;
#72 = APPLICATION_PROTOCOL_DEFINITION ( 'international standard', 'config_control_design', 1994, #126 ) ;
#73 = AXIS2_PLACEMENT_3D ( 'NONE', #156, #75, #48 ) ;
#74 = CC_DESIGN_SECURITY_CLASSIFICATION ( #159, ( #106 ) ) ;
#75 = DIRECTION ( 'NONE',  ( -0.000000000000000000, -0.000000000000000000, -1.000000000000000000 ) ) ;
#76 =( NAMED_UNIT ( * ) SI_UNIT ( $, .STERADIAN. ) SOLID_ANGLE_UNIT ( ) );
#77 = CC_DESIGN_DATE_AND_TIME_ASSIGNMENT ( #137, #139, ( #148 ) ) ;
#78 = PERSON_AND_ORGANIZATION_ROLE ( 'design_supplier' ) ;
#79 = PERSON_AND_ORGANIZATION_ROLE ( 'creator' ) ;
#80 = PERSON_AND_ORGANIZATION ( #120, #158 ) ;
#81 = DIRECTION ( 'NONE',  ( 0.000000000000000000, 0.000000000000000000, 1.000000000000000000 ) ) ;
#82 = CARTESIAN_POINT ( 'NONE',  ( 0.000000000000000000, 0.000000000000000000, 0.000000000000000000 ) ) ;
#83 = DESIGN_CONTEXT ( 'detailed design', #126, 'design' ) ;
#84 = APPROVAL_STATUS ( 'not_yet_approved' ) ;
#85 = DIRECTION ( 'NONE',  ( 0.000000000000000000, 0.000000000000000000, 1.000000000000000000 ) ) ;
#86 = CYLINDRICAL_SURFACE ( 'NONE', #68, 12.50000000000000000 ) ;
#87 = VERTEX_POINT ( 'NONE', #115 ) ;
#88 = CYLINDRICAL_SURFACE ( 'NONE', #73, 12.50000000000000000 ) ;
#89 = LOCAL_TIME ( 11, 4, 43.00000000000000000, #52 ) ;
#90 = ORIENTED_EDGE ( 'NONE', *, *, #9, .T. ) ;
#91 = COORDINATED_UNIVERSAL_TIME_OFFSET ( 5, 0, .BEHIND. ) ;
#92 = PERSON_AND_ORGANIZATION_ROLE ( 'classification_officer' ) ;
#93 = COORDINATED_UNIVERSAL_TIME_OFFSET ( 5, 0, .BEHIND. ) ;
#94 = PRODUCT_RELATED_PRODUCT_CATEGORY ( 'detail', '', ( #142 ) ) ;
#95 = DIRECTION ( 'NONE',  ( 1.000000000000000000, 0.000000000000000000, -0.000000000000000000 ) ) ;
#96 = APPROVAL_PERSON_ORGANIZATION ( #10, #26, #116 ) ;
#97 = ADVANCED_BREP_SHAPE_REPRESENTATION ( 'Web Model 19837_19861', ( #109, #169 ), #49 ) ;
#98 = DIRECTION ( 'NONE',  ( 0.000000000000000000, 0.000000000000000000, 1.000000000000000000 ) ) ;
#99 = VERTEX_POINT ( 'NONE', #130 ) ;
#100 = ORIENTED_EDGE ( 'NONE', *, *, #107, .F. ) ;
#101 = APPROVAL_DATE_TIME ( #152, #154 ) ;
#102 = EDGE_CURVE ( 'NONE', #99, #46, #143, .T. ) ;
#103 = DATE_AND_TIME ( #131, #118 ) ;
#104 = ADVANCED_FACE ( 'NONE', ( #25 ), #43, .T. ) ;
#105 = DATE_TIME_ROLE ( 'classification_date' ) ;
#106 = PRODUCT_DEFINITION_FORMATION_WITH_SPECIFIED_SOURCE ( 'ANY', '', #142, .NOT_KNOWN. ) ;
#107 = EDGE_CURVE ( 'NONE', #17, #46, #23, .T. ) ;
#108 = APPLICATION_PROTOCOL_DEFINITION ( 'international standard', 'config_control_design', 1994, #37 ) ;
#109 = MANIFOLD_SOLID_BREP ( 'Boss-Extrude1', #138 ) ;
#110 = EDGE_LOOP ( 'NONE', ( #90, #5 ) ) ;
#111 = PERSON_AND_ORGANIZATION ( #120, #158 ) ;
#112 = COORDINATED_UNIVERSAL_TIME_OFFSET ( 5, 0, .BEHIND. ) ;
#113 = CIRCLE ( 'NONE', #173, 12.50000000000000000 ) ;
#114 = ADVANCED_FACE ( 'NONE', ( #50 ), #86, .T. ) ;
#115 = CARTESIAN_POINT ( 'NONE',  ( 12.50000000000000000, 1.530808498934191521E-15, 4.000000000000000000 ) ) ;
#116 = APPROVAL_ROLE ( '' ) ;
#117 = APPROVAL_DATE_TIME ( #129, #26 ) ;
#118 = LOCAL_TIME ( 11, 4, 43.00000000000000000, #93 ) ;
#119 = SECURITY_CLASSIFICATION_LEVEL ( 'unclassified' ) ;
#120 = PERSON ( 'UNSPECIFIED', 'UNSPECIFIED', 'UNSPECIFIED', ('UNSPECIFIED'), ('UNSPECIFIED'), ('UNSPECIFIED') ) ;
#121 = CARTESIAN_POINT ( 'NONE',  ( 0.000000000000000000, 0.000000000000000000, 4.000000000000000000 ) ) ;
#122 =( LENGTH_UNIT ( ) NAMED_UNIT ( * ) SI_UNIT ( .MILLI., .METRE. ) );
#123 = ORIENTED_EDGE ( 'NONE', *, *, #9, .F. ) ;
#124 = APPROVAL_STATUS ( 'not_yet_approved' ) ;
#125 = DIRECTION ( 'NONE',  ( 0.000000000000000000, 0.000000000000000000, 1.000000000000000000 ) ) ;
#126 = APPLICATION_CONTEXT ( 'configuration controlled 3d designs of mechanical parts and assemblies' ) ;
#127 = MECHANICAL_CONTEXT ( 'NONE', #37, 'mechanical' ) ;
#128 = APPROVAL_DATE_TIME ( #103, #167 ) ;
#129 = DATE_AND_TIME ( #172, #89 ) ;
#130 = CARTESIAN_POINT ( 'NONE',  ( -12.50000000000000000, 0.000000000000000000, 4.000000000000000000 ) ) ;
#131 = CALENDAR_DATE ( 2022, 6, 4 ) ;
#132 = ADVANCED_FACE ( 'NONE', ( #7 ), #88, .T. ) ;
#133 = PERSON_AND_ORGANIZATION ( #120, #158 ) ;
#134 = DIRECTION ( 'NONE',  ( -0.000000000000000000, -0.000000000000000000, -1.000000000000000000 ) ) ;
#135 = DIRECTION ( 'NONE',  ( 1.000000000000000000, 0.000000000000000000, 0.000000000000000000 ) ) ;
#136 = LOCAL_TIME ( 11, 4, 43.00000000000000000, #112 ) ;
#137 = DATE_AND_TIME ( #170, #64 ) ;
#138 = CLOSED_SHELL ( 'NONE', ( #114, #132, #104, #12 ) ) ;
#139 = DATE_TIME_ROLE ( 'creation_date' ) ;
#140 = EDGE_CURVE ( 'NONE', #87, #99, #27, .T. ) ;
#141 = PERSON_AND_ORGANIZATION ( #120, #158 ) ;
#142 = PRODUCT ( 'Web Model 19837_19861', 'Web Model 19837_19861', '', ( #127 ) ) ;
#143 = LINE ( 'NONE', #144, #157 ) ;
#144 = CARTESIAN_POINT ( 'NONE',  ( -12.50000000000000000, 0.000000000000000000, 4.000000000000000000 ) ) ;
#145 = APPROVAL_PERSON_ORGANIZATION ( #69, #154, #32 ) ;
#146 = AXIS2_PLACEMENT_3D ( 'NONE', #16, #160, #45 ) ;
#147 = CARTESIAN_POINT ( 'NONE',  ( 12.50000000000000000, 1.530808498934191521E-15, 4.000000000000000000 ) ) ;
#148 = PRODUCT_DEFINITION ( 'UNKNOWN', '', #106, #83 ) ;
#149 = CC_DESIGN_PERSON_AND_ORGANIZATION_ASSIGNMENT ( #133, #79, ( #106 ) ) ;
#150 = CARTESIAN_POINT ( 'NONE',  ( 0.000000000000000000, 0.000000000000000000, 4.000000000000000000 ) ) ;
#151 = ORIENTED_EDGE ( 'NONE', *, *, #102, .T. ) ;
#152 = DATE_AND_TIME ( #166, #136 ) ;
#153 = EDGE_LOOP ( 'NONE', ( #63, #100 ) ) ;
#154 = APPROVAL ( #124, 'UNSPECIFIED' ) ;
#155 = CC_DESIGN_DATE_AND_TIME_ASSIGNMENT ( #28, #105, ( #159 ) ) ;
#156 = CARTESIAN_POINT ( 'NONE',  ( 0.000000000000000000, 0.000000000000000000, 4.000000000000000000 ) ) ;
#157 = VECTOR ( 'NONE', #134, 1000.000000000000000 ) ;
#158 = ORGANIZATION ( 'UNSPECIFIED', 'UNSPECIFIED', '' ) ;
#159 = SECURITY_CLASSIFICATION ( '', '', #119 ) ;
#160 = DIRECTION ( 'NONE',  ( 0.000000000000000000, 0.000000000000000000, 1.000000000000000000 ) ) ;
#161 = AXIS2_PLACEMENT_3D ( 'NONE', #35, #85, #21 ) ;
#162 = DIRECTION ( 'NONE',  ( 1.000000000000000000, 0.000000000000000000, -0.000000000000000000 ) ) ;
#163 = EDGE_LOOP ( 'NONE', ( #61, #123, #151, #71 ) ) ;
#164 = ORIENTED_EDGE ( 'NONE', *, *, #140, .F. ) ;
#165 = PERSON_AND_ORGANIZATION ( #120, #158 ) ;
#166 = CALENDAR_DATE ( 2022, 6, 4 ) ;
#167 = APPROVAL ( #171, 'UNSPECIFIED' ) ;
#168 = CC_DESIGN_PERSON_AND_ORGANIZATION_ASSIGNMENT ( #111, #70, ( #142 ) ) ;
#169 = AXIS2_PLACEMENT_3D ( 'NONE', #34, #125, #18 ) ;
#170 = CALENDAR_DATE ( 2022, 6, 4 ) ;
#171 = APPROVAL_STATUS ( 'not_yet_approved' ) ;
#172 = CALENDAR_DATE ( 2022, 6, 4 ) ;
#173 = AXIS2_PLACEMENT_3D ( 'NONE', #59, #98, #22 ) ;
#174 = CC_DESIGN_APPROVAL ( #26, ( #106 ) ) ;
#175 = EDGE_CURVE ( 'NONE', #46, #17, #113, .T. ) ;
ENDSEC;
END-ISO-10303-21;
