ISO-10303-21;
HEADER;
FILE_DESCRIPTION (( 'STEP AP203' ),
    '1' );
FILE_NAME ('Web Model 45257.STEP',
    '2017-01-31T15:17:34',
    ( '' ),
    ( '' ),
    'SwSTEP 2.0',
    'SolidWorks 2016',
    '' );
FILE_SCHEMA (( 'CONFIG_CONTROL_DESIGN' ));
ENDSEC;

DATA;
#1 = LOCAL_TIME ( 10, 17, 34.00000000000000000, #69 ) ;
#2 = AXIS2_PLACEMENT_3D ( 'NONE', #135, #171, #156 ) ;
#3 = DIRECTION ( 'NONE',  ( 0.0000000000000000000, 0.0000000000000000000, 1.000000000000000000 ) ) ;
#4 = APPROVAL_PERSON_ORGANIZATION ( #6, #76, #90 ) ;
#5 = APPROVAL ( #170, 'UNSPECIFIED' ) ;
#6 = PERSON_AND_ORGANIZATION ( #116, #148 ) ;
#7 = PERSON_AND_ORGANIZATION_ROLE ( 'classification_officer' ) ;
#8 = CIRCLE ( 'NONE', #117, 6.250000000000000000 ) ;
#9 = DIRECTION ( 'NONE',  ( 1.000000000000000000, 0.0000000000000000000, 0.0000000000000000000 ) ) ;
#10 = CC_DESIGN_APPROVAL ( #74, ( #82 ) ) ;
#11 = CARTESIAN_POINT ( 'NONE',  ( 6.250000000000000000, 0.0000000000000000000, -3.000000000000000000 ) ) ;
#12 = APPROVAL_ROLE ( '' ) ;
#13 = PRODUCT_DEFINITION ( 'UNKNOWN', '', #55, #15 ) ;
#14 = CARTESIAN_POINT ( 'NONE',  ( 6.250000000000000000, 0.0000000000000000000, -3.000000000000000000 ) ) ;
#15 = DESIGN_CONTEXT ( 'detailed design', #59, 'design' ) ;
#16 = DIRECTION ( 'NONE',  ( 1.000000000000000000, 0.0000000000000000000, -0.0000000000000000000 ) ) ;
#17 = ADVANCED_FACE ( 'NONE', ( #151 ), #92, .F. ) ;
#18 = CIRCLE ( 'NONE', #49, 6.250000000000000000 ) ;
#19 = DIRECTION ( 'NONE',  ( 1.000000000000000000, 0.0000000000000000000, 0.0000000000000000000 ) ) ;
#20 = MANIFOLD_SOLID_BREP ( 'Extrude1', #127 ) ;
#21 = LOCAL_TIME ( 10, 17, 34.00000000000000000, #141 ) ;
#22 = VECTOR ( 'NONE', #134, 1000.000000000000000 ) ;
#23 = SHAPE_DEFINITION_REPRESENTATION ( #37, #48 ) ;
#24 = APPROVAL_DATE_TIME ( #140, #5 ) ;
#25 = APPROVAL_DATE_TIME ( #129, #74 ) ;
#26 = CC_DESIGN_PERSON_AND_ORGANIZATION_ASSIGNMENT ( #35, #103, ( #13 ) ) ;
#27 = EDGE_CURVE ( 'NONE', #64, #84, #18, .T. ) ;
#28 =( NAMED_UNIT ( * ) PLANE_ANGLE_UNIT ( ) SI_UNIT ( $, .RADIAN. ) );
#29 = CARTESIAN_POINT ( 'NONE',  ( 0.0000000000000000000, 0.0000000000000000000, -3.000000000000000000 ) ) ;
#30 = CARTESIAN_POINT ( 'NONE',  ( 0.0000000000000000000, 0.0000000000000000000, -3.000000000000000000 ) ) ;
#31 = CC_DESIGN_APPROVAL ( #76, ( #13 ) ) ;
#32 = APPROVAL_PERSON_ORGANIZATION ( #71, #5, #12 ) ;
#33 = ORIENTED_EDGE ( 'NONE', *, *, #155, .F. ) ;
#34 = CC_DESIGN_PERSON_AND_ORGANIZATION_ASSIGNMENT ( #161, #7, ( #82 ) ) ;
#35 = PERSON_AND_ORGANIZATION ( #116, #148 ) ;
#36 = CIRCLE ( 'NONE', #66, 6.250000000000000000 ) ;
#37 = PRODUCT_DEFINITION_SHAPE ( 'NONE', 'NONE',  #13 ) ;
#38 = APPROVAL_PERSON_ORGANIZATION ( #83, #74, #120 ) ;
#39 = CARTESIAN_POINT ( 'NONE',  ( 0.0000000000000000000, 0.0000000000000000000, -3.000000000000000000 ) ) ;
#40 = ORIENTED_EDGE ( 'NONE', *, *, #160, .F. ) ;
#41 = UNCERTAINTY_MEASURE_WITH_UNIT (LENGTH_MEASURE( 1.000000000000000100E-005 ), #88, 'distance_accuracy_value', 'NONE');
#42 = LINE ( 'NONE', #14, #147 ) ;
#43 = APPLICATION_CONTEXT ( 'configuration controlled 3d designs of mechanical parts and assemblies' ) ;
#44 = CARTESIAN_POINT ( 'NONE',  ( -6.250000000000000000, 7.654042494670957600E-016, -3.000000000000000000 ) ) ;
#45 = DIRECTION ( 'NONE',  ( 0.0000000000000000000, 0.0000000000000000000, 1.000000000000000000 ) ) ;
#46 = DIRECTION ( 'NONE',  ( 0.0000000000000000000, 0.0000000000000000000, 1.000000000000000000 ) ) ;
#47 = CC_DESIGN_DATE_AND_TIME_ASSIGNMENT ( #94, #112, ( #82 ) ) ;
#48 = ADVANCED_BREP_SHAPE_REPRESENTATION ( 'Web Model 45257', ( #20, #145 ), #125 ) ;
#49 = AXIS2_PLACEMENT_3D ( 'NONE', #91, #46, #123 ) ;
#50 = CARTESIAN_POINT ( 'NONE',  ( 0.0000000000000000000, 0.0000000000000000000, 0.0000000000000000000 ) ) ;
#51 = CC_DESIGN_APPROVAL ( #5, ( #55 ) ) ;
#52 = CC_DESIGN_SECURITY_CLASSIFICATION ( #82, ( #55 ) ) ;
#53 = PERSON_AND_ORGANIZATION ( #116, #148 ) ;
#54 = VERTEX_POINT ( 'NONE', #62 ) ;
#55 = PRODUCT_DEFINITION_FORMATION_WITH_SPECIFIED_SOURCE ( 'ANY', '', #159, .NOT_KNOWN. ) ;
#56 = ADVANCED_FACE ( 'NONE', ( #137 ), #143, .T. ) ;
#57 = ORIENTED_EDGE ( 'NONE', *, *, #27, .F. ) ;
#58 =( NAMED_UNIT ( * ) SI_UNIT ( $, .STERADIAN. ) SOLID_ANGLE_UNIT ( ) );
#59 = APPLICATION_CONTEXT ( 'configuration controlled 3d designs of mechanical parts and assemblies' ) ;
#60 = CARTESIAN_POINT ( 'NONE',  ( 6.250000000000000000, 0.0000000000000000000, 0.0000000000000000000 ) ) ;
#61 = PERSON_AND_ORGANIZATION ( #116, #148 ) ;
#62 = CARTESIAN_POINT ( 'NONE',  ( -6.250000000000000000, 7.654042494670957600E-016, -3.000000000000000000 ) ) ;
#63 = AXIS2_PLACEMENT_3D ( 'NONE', #30, #173, #104 ) ;
#64 = VERTEX_POINT ( 'NONE', #113 ) ;
#65 = DIRECTION ( 'NONE',  ( 1.000000000000000000, 0.0000000000000000000, 0.0000000000000000000 ) ) ;
#66 = AXIS2_PLACEMENT_3D ( 'NONE', #154, #111, #9 ) ;
#67 = DIRECTION ( 'NONE',  ( 0.0000000000000000000, 0.0000000000000000000, 1.000000000000000000 ) ) ;
#68 = EDGE_LOOP ( 'NONE', ( #89, #99 ) ) ;
#69 = COORDINATED_UNIVERSAL_TIME_OFFSET ( 5, 0, .BEHIND. ) ;
#70 = CC_DESIGN_PERSON_AND_ORGANIZATION_ASSIGNMENT ( #61, #132, ( #55 ) ) ;
#71 = PERSON_AND_ORGANIZATION ( #116, #148 ) ;
#72 = EDGE_LOOP ( 'NONE', ( #96, #139, #33, #40 ) ) ;
#73 = CARTESIAN_POINT ( 'NONE',  ( 0.0000000000000000000, 0.0000000000000000000, 0.0000000000000000000 ) ) ;
#74 = APPROVAL ( #110, 'UNSPECIFIED' ) ;
#75 = DIRECTION ( 'NONE',  ( 0.0000000000000000000, 0.0000000000000000000, 1.000000000000000000 ) ) ;
#76 = APPROVAL ( #142, 'UNSPECIFIED' ) ;
#77 = DIRECTION ( 'NONE',  ( 1.000000000000000000, 0.0000000000000000000, 0.0000000000000000000 ) ) ;
#78 = DIRECTION ( 'NONE',  ( 0.0000000000000000000, 0.0000000000000000000, 1.000000000000000000 ) ) ;
#79 = COORDINATED_UNIVERSAL_TIME_OFFSET ( 5, 0, .BEHIND. ) ;
#80 = DATE_AND_TIME ( #152, #21 ) ;
#81 = LINE ( 'NONE', #44, #22 ) ;
#82 = SECURITY_CLASSIFICATION ( '', '', #101 ) ;
#83 = PERSON_AND_ORGANIZATION ( #116, #148 ) ;
#84 = VERTEX_POINT ( 'NONE', #60 ) ;
#85 = CC_DESIGN_PERSON_AND_ORGANIZATION_ASSIGNMENT ( #53, #133, ( #159 ) ) ;
#86 = CYLINDRICAL_SURFACE ( 'NONE', #130, 6.250000000000000000 ) ;
#87 = CIRCLE ( 'NONE', #98, 6.250000000000000000 ) ;
#88 =( LENGTH_UNIT ( ) NAMED_UNIT ( * ) SI_UNIT ( .MILLI., .METRE. ) );
#89 = ORIENTED_EDGE ( 'NONE', *, *, #168, .F. ) ;
#90 = APPROVAL_ROLE ( '' ) ;
#91 = CARTESIAN_POINT ( 'NONE',  ( 0.0000000000000000000, 0.0000000000000000000, 0.0000000000000000000 ) ) ;
#92 = PLANE ( 'NONE',  #97 ) ;
#93 = FACE_OUTER_BOUND ( 'NONE', #72, .T. ) ;
#94 = DATE_AND_TIME ( #128, #144 ) ;
#95 = CC_DESIGN_PERSON_AND_ORGANIZATION_ASSIGNMENT ( #124, #100, ( #55 ) ) ;
#96 = ORIENTED_EDGE ( 'NONE', *, *, #168, .T. ) ;
#97 = AXIS2_PLACEMENT_3D ( 'NONE', #146, #78, #16 ) ;
#98 = AXIS2_PLACEMENT_3D ( 'NONE', #50, #3, #65 ) ;
#99 = ORIENTED_EDGE ( 'NONE', *, *, #150, .F. ) ;
#100 = PERSON_AND_ORGANIZATION_ROLE ( 'design_supplier' ) ;
#101 = SECURITY_CLASSIFICATION_LEVEL ( 'unclassified' ) ;
#102 = APPLICATION_PROTOCOL_DEFINITION ( 'international standard', 'config_control_design', 1994, #43 ) ;
#103 = PERSON_AND_ORGANIZATION_ROLE ( 'creator' ) ;
#104 = DIRECTION ( 'NONE',  ( 1.000000000000000000, 0.0000000000000000000, 0.0000000000000000000 ) ) ;
#105 = CALENDAR_DATE ( 2017, 31, 1 ) ;
#106 = EDGE_LOOP ( 'NONE', ( #149, #126 ) ) ;
#107 = ORIENTED_EDGE ( 'NONE', *, *, #150, .T. ) ;
#108 = CALENDAR_DATE ( 2017, 31, 1 ) ;
#109 = ADVANCED_FACE ( 'NONE', ( #93 ), #153, .T. ) ;
#110 = APPROVAL_STATUS ( 'not_yet_approved' ) ;
#111 = DIRECTION ( 'NONE',  ( 0.0000000000000000000, 0.0000000000000000000, 1.000000000000000000 ) ) ;
#112 = DATE_TIME_ROLE ( 'classification_date' ) ;
#113 = CARTESIAN_POINT ( 'NONE',  ( -6.250000000000000000, 7.654042494670957600E-016, 0.0000000000000000000 ) ) ;
#114 = DATE_AND_TIME ( #108, #136 ) ;
#115 = FACE_OUTER_BOUND ( 'NONE', #118, .T. ) ;
#116 = PERSON ( 'UNSPECIFIED', 'UNSPECIFIED', 'UNSPECIFIED', ('UNSPECIFIED'), ('UNSPECIFIED'), ('UNSPECIFIED') ) ;
#117 = AXIS2_PLACEMENT_3D ( 'NONE', #29, #45, #77 ) ;
#118 = EDGE_LOOP ( 'NONE', ( #158, #107, #131, #57 ) ) ;
#119 = EDGE_CURVE ( 'NONE', #54, #64, #81, .T. ) ;
#120 = APPROVAL_ROLE ( '' ) ;
#121 = APPLICATION_PROTOCOL_DEFINITION ( 'international standard', 'config_control_design', 1994, #59 ) ;
#122 = DIRECTION ( 'NONE',  ( 1.000000000000000000, 0.0000000000000000000, 0.0000000000000000000 ) ) ;
#123 = DIRECTION ( 'NONE',  ( 1.000000000000000000, 0.0000000000000000000, 0.0000000000000000000 ) ) ;
#124 = PERSON_AND_ORGANIZATION ( #116, #148 ) ;
#125 =( GEOMETRIC_REPRESENTATION_CONTEXT ( 3 ) GLOBAL_UNCERTAINTY_ASSIGNED_CONTEXT ( ( #41 ) ) GLOBAL_UNIT_ASSIGNED_CONTEXT ( ( #88, #28, #58 ) ) REPRESENTATION_CONTEXT ( 'NONE', 'WORKASPACE' ) );
#126 = ORIENTED_EDGE ( 'NONE', *, *, #27, .T. ) ;
#127 = CLOSED_SHELL ( 'NONE', ( #109, #166, #17, #56 ) ) ;
#128 = CALENDAR_DATE ( 2017, 31, 1 ) ;
#129 = DATE_AND_TIME ( #162, #1 ) ;
#130 = AXIS2_PLACEMENT_3D ( 'NONE', #39, #157, #19 ) ;
#131 = ORIENTED_EDGE ( 'NONE', *, *, #160, .T. ) ;
#132 = PERSON_AND_ORGANIZATION_ROLE ( 'creator' ) ;
#133 = PERSON_AND_ORGANIZATION_ROLE ( 'design_owner' ) ;
#134 = DIRECTION ( 'NONE',  ( 0.0000000000000000000, 0.0000000000000000000, 1.000000000000000000 ) ) ;
#135 = CARTESIAN_POINT ( 'NONE',  ( 0.0000000000000000000, 0.0000000000000000000, 0.0000000000000000000 ) ) ;
#136 = LOCAL_TIME ( 10, 17, 34.00000000000000000, #167 ) ;
#137 = FACE_OUTER_BOUND ( 'NONE', #106, .T. ) ;
#138 = APPROVAL_DATE_TIME ( #80, #76 ) ;
#139 = ORIENTED_EDGE ( 'NONE', *, *, #119, .T. ) ;
#140 = DATE_AND_TIME ( #105, #163 ) ;
#141 = COORDINATED_UNIVERSAL_TIME_OFFSET ( 5, 0, .BEHIND. ) ;
#142 = APPROVAL_STATUS ( 'not_yet_approved' ) ;
#143 = PLANE ( 'NONE',  #2 ) ;
#144 = LOCAL_TIME ( 10, 17, 34.00000000000000000, #79 ) ;
#145 = AXIS2_PLACEMENT_3D ( 'NONE', #73, #75, #122 ) ;
#146 = CARTESIAN_POINT ( 'NONE',  ( 0.0000000000000000000, 0.0000000000000000000, -3.000000000000000000 ) ) ;
#147 = VECTOR ( 'NONE', #67, 1000.000000000000000 ) ;
#148 = ORGANIZATION ( 'UNSPECIFIED', 'UNSPECIFIED', '' ) ;
#149 = ORIENTED_EDGE ( 'NONE', *, *, #155, .T. ) ;
#150 = EDGE_CURVE ( 'NONE', #54, #164, #8, .T. ) ;
#151 = FACE_OUTER_BOUND ( 'NONE', #68, .T. ) ;
#152 = CALENDAR_DATE ( 2017, 31, 1 ) ;
#153 = CYLINDRICAL_SURFACE ( 'NONE', #63, 6.250000000000000000 ) ;
#154 = CARTESIAN_POINT ( 'NONE',  ( 0.0000000000000000000, 0.0000000000000000000, -3.000000000000000000 ) ) ;
#155 = EDGE_CURVE ( 'NONE', #84, #64, #87, .T. ) ;
#156 = DIRECTION ( 'NONE',  ( 1.000000000000000000, 0.0000000000000000000, -0.0000000000000000000 ) ) ;
#157 = DIRECTION ( 'NONE',  ( 0.0000000000000000000, 0.0000000000000000000, 1.000000000000000000 ) ) ;
#158 = ORIENTED_EDGE ( 'NONE', *, *, #119, .F. ) ;
#159 = PRODUCT ( 'Web Model 45257', 'Web Model 45257', '', ( #172 ) ) ;
#160 = EDGE_CURVE ( 'NONE', #164, #84, #42, .T. ) ;
#161 = PERSON_AND_ORGANIZATION ( #116, #148 ) ;
#162 = CALENDAR_DATE ( 2017, 31, 1 ) ;
#163 = LOCAL_TIME ( 10, 17, 34.00000000000000000, #175 ) ;
#164 = VERTEX_POINT ( 'NONE', #11 ) ;
#165 = PRODUCT_RELATED_PRODUCT_CATEGORY ( 'detail', '', ( #159 ) ) ;
#166 = ADVANCED_FACE ( 'NONE', ( #115 ), #86, .T. ) ;
#167 = COORDINATED_UNIVERSAL_TIME_OFFSET ( 5, 0, .BEHIND. ) ;
#168 = EDGE_CURVE ( 'NONE', #164, #54, #36, .T. ) ;
#169 = DATE_TIME_ROLE ( 'creation_date' ) ;
#170 = APPROVAL_STATUS ( 'not_yet_approved' ) ;
#171 = DIRECTION ( 'NONE',  ( 0.0000000000000000000, 0.0000000000000000000, 1.000000000000000000 ) ) ;
#172 = MECHANICAL_CONTEXT ( 'NONE', #43, 'mechanical' ) ;
#173 = DIRECTION ( 'NONE',  ( 0.0000000000000000000, 0.0000000000000000000, 1.000000000000000000 ) ) ;
#174 = CC_DESIGN_DATE_AND_TIME_ASSIGNMENT ( #114, #169, ( #13 ) ) ;
#175 = COORDINATED_UNIVERSAL_TIME_OFFSET ( 5, 0, .BEHIND. ) ;
ENDSEC;
END-ISO-10303-21;
