ISO-10303-21;
HEADER;
FILE_DESCRIPTION (( 'STEP AP214' ),
    '1' );
FILE_NAME ('CTN009238.STEP',
    '2016-06-30T09:51:43',
    ( '' ),
    ( '' ),
    'SwSTEP 2.0',
    'SolidWorks 2016',
    '' );
FILE_SCHEMA (( 'AUTOMOTIVE_DESIGN' ));
ENDSEC;

DATA;
#1 = ORIENTED_EDGE ( 'NONE', *, *, #103, .F. ) ;
#2 = CARTESIAN_POINT ( 'NONE',  ( -2.499999999999999600, 0.5000000000000000000, -2.499999999999999600 ) ) ;
#3 = DIRECTION ( 'NONE',  ( -0.0000000000000000000, -1.000000000000000000, -0.0000000000000000000 ) ) ;
#4 = APPLICATION_CONTEXT ( 'automotive_design' ) ;
#5 = CARTESIAN_POINT ( 'NONE',  ( -2.499999999999999600, 0.5000000000000000000, -2.499999999999999600 ) ) ;
#6 = MECHANICAL_DESIGN_GEOMETRIC_PRESENTATION_REPRESENTATION (  '', ( #201 ), #260 ) ;
#7 = SURFACE_SIDE_STYLE ('',( #25 ) ) ;
#8 = ADVANCED_FACE ( 'NONE', ( #196 ), #284, .F. ) ;
#9 = VECTOR ( 'NONE', #56, 1000.000000000000000 ) ;
#10 = ORIENTED_EDGE ( 'NONE', *, *, #126, .T. ) ;
#11 =( GEOMETRIC_REPRESENTATION_CONTEXT ( 3 ) GLOBAL_UNCERTAINTY_ASSIGNED_CONTEXT ( ( #72 ) ) GLOBAL_UNIT_ASSIGNED_CONTEXT ( ( #245, #140, #63 ) ) REPRESENTATION_CONTEXT ( 'NONE', 'WORKASPACE' ) );
#12 = LINE ( 'NONE', #200, #264 ) ;
#13 =( LENGTH_UNIT ( ) NAMED_UNIT ( * ) SI_UNIT ( .MILLI., .METRE. ) );
#14 = EDGE_CURVE ( 'NONE', #185, #85, #279, .T. ) ;
#15 = LINE ( 'NONE', #2, #29 ) ;
#16 = LINE ( 'NONE', #106, #58 ) ;
#17 = FILL_AREA_STYLE ('',( #290 ) ) ;
#18 = DIRECTION ( 'NONE',  ( -1.734723475976807100E-016, 0.0000000000000000000, -1.000000000000000000 ) ) ;
#19 = AXIS2_PLACEMENT_3D ( 'NONE', #138, #119, #191 ) ;
#20 = DIRECTION ( 'NONE',  ( 1.000000000000000000, 0.0000000000000000000, -8.673617379884037900E-017 ) ) ;
#21 = VECTOR ( 'NONE', #275, 1000.000000000000000 ) ;
#22 = PRODUCT ( 'CTN009238', 'CTN009238', '', ( #227 ) ) ;
#23 =( LENGTH_UNIT ( ) NAMED_UNIT ( * ) SI_UNIT ( .MILLI., .METRE. ) );
#24 = COLOUR_RGB ( '',0.7529411764705882200, 0.7529411764705882200, 0.0000000000000000000 ) ;
#25 = SURFACE_STYLE_FILL_AREA ( #59 ) ;
#26 = EDGE_LOOP ( 'NONE', ( #224, #235, #30, #203 ) ) ;
#27 =( NAMED_UNIT ( * ) SI_UNIT ( $, .STERADIAN. ) SOLID_ANGLE_UNIT ( ) );
#28 =( NAMED_UNIT ( * ) SI_UNIT ( $, .STERADIAN. ) SOLID_ANGLE_UNIT ( ) );
#29 = VECTOR ( 'NONE', #102, 1000.000000000000000 ) ;
#30 = ORIENTED_EDGE ( 'NONE', *, *, #204, .T. ) ;
#31 = ORIENTED_EDGE ( 'NONE', *, *, #86, .F. ) ;
#32 = DIRECTION ( 'NONE',  ( 1.000000000000000000, 0.0000000000000000000, -8.673617379884037900E-017 ) ) ;
#33 = SURFACE_STYLE_FILL_AREA ( #273 ) ;
#34 =( LENGTH_UNIT ( ) NAMED_UNIT ( * ) SI_UNIT ( .MILLI., .METRE. ) );
#35 = EDGE_CURVE ( 'NONE', #132, #46, #15, .T. ) ;
#36 = LINE ( 'NONE', #82, #137 ) ;
#37 = DIRECTION ( 'NONE',  ( -0.0000000000000000000, -1.000000000000000000, -0.0000000000000000000 ) ) ;
#38 = STYLED_ITEM ( 'NONE', ( #192 ), #195 ) ;
#39 = VECTOR ( 'NONE', #32, 1000.000000000000000 ) ;
#40 = MECHANICAL_DESIGN_GEOMETRIC_PRESENTATION_REPRESENTATION (  '', ( #92 ), #199 ) ;
#41 =( NAMED_UNIT ( * ) SI_UNIT ( $, .STERADIAN. ) SOLID_ANGLE_UNIT ( ) );
#42 = EDGE_LOOP ( 'NONE', ( #141, #257, #220, #277 ) ) ;
#43 = EDGE_LOOP ( 'NONE', ( #52, #84, #142, #1 ) ) ;
#44 = SURFACE_SIDE_STYLE ('',( #136 ) ) ;
#45 = APPLICATION_PROTOCOL_DEFINITION ( 'draft international standard', 'automotive_design', 1998, #122 ) ;
#46 = VERTEX_POINT ( 'NONE', #175 ) ;
#47 = DIRECTION ( 'NONE',  ( -0.0000000000000000000, 1.000000000000000000, 0.0000000000000000000 ) ) ;
#48 =( NAMED_UNIT ( * ) PLANE_ANGLE_UNIT ( ) SI_UNIT ( $, .RADIAN. ) );
#49 = FACE_OUTER_BOUND ( 'NONE', #42, .T. ) ;
#50 = STYLED_ITEM ( 'NONE', ( #88 ), #8 ) ;
#51 = STYLED_ITEM ( 'NONE', ( #113 ), #94 ) ;
#52 = ORIENTED_EDGE ( 'NONE', *, *, #126, .F. ) ;
#53 = AXIS2_PLACEMENT_3D ( 'NONE', #101, #219, #177 ) ;
#54 = CARTESIAN_POINT ( 'NONE',  ( 2.499999999999999600, 0.0000000000000000000, -2.500000000000000000 ) ) ;
#55 = UNCERTAINTY_MEASURE_WITH_UNIT (LENGTH_MEASURE( 1.000000000000000100E-005 ), #168, 'distance_accuracy_value', 'NONE');
#56 = DIRECTION ( 'NONE',  ( -0.0000000000000000000, -0.0000000000000000000, -1.000000000000000000 ) ) ;
#57 = FILL_AREA_STYLE_COLOUR ( '', #163 ) ;
#58 = VECTOR ( 'NONE', #61, 1000.000000000000000 ) ;
#59 = FILL_AREA_STYLE ('',( #57 ) ) ;
#60 = COLOUR_RGB ( '',1.000000000000000000, 1.000000000000000000, 0.5019607843137254800 ) ;
#61 = DIRECTION ( 'NONE',  ( -1.000000000000000000, -0.0000000000000000000, 8.673617379884036700E-017 ) ) ;
#62 = AXIS2_PLACEMENT_3D ( 'NONE', #278, #115, #234 ) ;
#63 =( NAMED_UNIT ( * ) SI_UNIT ( $, .STERADIAN. ) SOLID_ANGLE_UNIT ( ) );
#64 = FILL_AREA_STYLE ('',( #154 ) ) ;
#65 =( NAMED_UNIT ( * ) PLANE_ANGLE_UNIT ( ) SI_UNIT ( $, .RADIAN. ) );
#66 = APPLICATION_PROTOCOL_DEFINITION ( 'draft international standard', 'automotive_design', 1998, #4 ) ;
#67 =( GEOMETRIC_REPRESENTATION_CONTEXT ( 3 ) GLOBAL_UNCERTAINTY_ASSIGNED_CONTEXT ( ( #280 ) ) GLOBAL_UNIT_ASSIGNED_CONTEXT ( ( #184, #267, #128 ) ) REPRESENTATION_CONTEXT ( 'NONE', 'WORKASPACE' ) );
#68 =( GEOMETRIC_REPRESENTATION_CONTEXT ( 3 ) GLOBAL_UNCERTAINTY_ASSIGNED_CONTEXT ( ( #55 ) ) GLOBAL_UNIT_ASSIGNED_CONTEXT ( ( #168, #259, #41 ) ) REPRESENTATION_CONTEXT ( 'NONE', 'WORKASPACE' ) );
#69 = COLOUR_RGB ( '',1.000000000000000000, 1.000000000000000000, 0.5019607843137254800 ) ;
#70 =( NAMED_UNIT ( * ) SI_UNIT ( $, .STERADIAN. ) SOLID_ANGLE_UNIT ( ) );
#71 = ORIENTED_EDGE ( 'NONE', *, *, #204, .F. ) ;
#72 = UNCERTAINTY_MEASURE_WITH_UNIT (LENGTH_MEASURE( 1.000000000000000100E-005 ), #245, 'distance_accuracy_value', 'NONE');
#73 = CARTESIAN_POINT ( 'NONE',  ( 2.499999999999999600, 0.0000000000000000000, 2.500000000000000000 ) ) ;
#74 = ADVANCED_FACE ( 'NONE', ( #145 ), #236, .F. ) ;
#75 = SURFACE_SIDE_STYLE ('',( #250 ) ) ;
#76 = ORIENTED_EDGE ( 'NONE', *, *, #86, .T. ) ;
#77 =( NAMED_UNIT ( * ) PLANE_ANGLE_UNIT ( ) SI_UNIT ( $, .RADIAN. ) );
#78 = VERTEX_POINT ( 'NONE', #155 ) ;
#79 =( NAMED_UNIT ( * ) PLANE_ANGLE_UNIT ( ) SI_UNIT ( $, .RADIAN. ) );
#80 = MECHANICAL_DESIGN_GEOMETRIC_PRESENTATION_REPRESENTATION (  '', ( #129 ), #11 ) ;
#81 = DIRECTION ( 'NONE',  ( 0.0000000000000000000, -0.0000000000000000000, 1.000000000000000000 ) ) ;
#82 = CARTESIAN_POINT ( 'NONE',  ( 2.499999999999999600, 0.5000000000000000000, 2.500000000000000000 ) ) ;
#83 = MECHANICAL_DESIGN_GEOMETRIC_PRESENTATION_REPRESENTATION (  '', ( #265 ), #68 ) ;
#84 = ORIENTED_EDGE ( 'NONE', *, *, #249, .F. ) ;
#85 = VERTEX_POINT ( 'NONE', #262 ) ;
#86 = EDGE_CURVE ( 'NONE', #78, #289, #179, .T. ) ;
#87 = VECTOR ( 'NONE', #223, 1000.000000000000000 ) ;
#88 = PRESENTATION_STYLE_ASSIGNMENT (( #149 ) ) ;
#89 = FILL_AREA_STYLE ('',( #255 ) ) ;
#90 = ORIENTED_EDGE ( 'NONE', *, *, #35, .T. ) ;
#91 = PRESENTATION_STYLE_ASSIGNMENT (( #188 ) ) ;
#92 = STYLED_ITEM ( 'NONE', ( #230 ), #173 ) ;
#93 = COLOUR_RGB ( '',1.000000000000000000, 0.5019607843137254800, 0.5019607843137254800 ) ;
#94 = ADVANCED_FACE ( 'NONE', ( #49 ), #178, .F. ) ;
#95 = CARTESIAN_POINT ( 'NONE',  ( -2.499999999999999600, 0.5000000000000000000, -2.499999999999999600 ) ) ;
#96 = LINE ( 'NONE', #123, #87 ) ;
#97 =( NAMED_UNIT ( * ) PLANE_ANGLE_UNIT ( ) SI_UNIT ( $, .RADIAN. ) );
#98 = FILL_AREA_STYLE_COLOUR ( '', #60 ) ;
#99 = VECTOR ( 'NONE', #186, 1000.000000000000000 ) ;
#100 = SURFACE_STYLE_FILL_AREA ( #207 ) ;
#101 = CARTESIAN_POINT ( 'NONE',  ( -2.499999999999999600, 0.5000000000000000000, -2.499999999999999600 ) ) ;
#102 = DIRECTION ( 'NONE',  ( -0.0000000000000000000, -1.000000000000000000, -0.0000000000000000000 ) ) ;
#103 = EDGE_CURVE ( 'NONE', #289, #185, #272, .T. ) ;
#104 = PLANE ( 'NONE',  #135 ) ;
#105 = CARTESIAN_POINT ( 'NONE',  ( 0.0000000000000000000, 0.5000000000000000000, 0.0000000000000000000 ) ) ;
#106 = CARTESIAN_POINT ( 'NONE',  ( -2.499999999999999600, 0.5000000000000000000, -2.499999999999999600 ) ) ;
#107 = PRESENTATION_LAYER_ASSIGNMENT (  '', '', ( #129 ) ) ;
#108 = FILL_AREA_STYLE_COLOUR ( '', #238 ) ;
#109 = EDGE_LOOP ( 'NONE', ( #125, #202, #71, #148 ) ) ;
#110 = DIRECTION ( 'NONE',  ( -8.673617379884037900E-017, 0.0000000000000000000, -1.000000000000000000 ) ) ;
#111 = PRODUCT_DEFINITION_SHAPE ( 'NONE', 'NONE',  #121 ) ;
#112 = CARTESIAN_POINT ( 'NONE',  ( -2.499999999999998700, 0.5000000000000000000, 2.500000000000000400 ) ) ;
#113 = PRESENTATION_STYLE_ASSIGNMENT (( #212 ) ) ;
#114 = DIRECTION ( 'NONE',  ( 1.000000000000000000, 0.0000000000000000000, -1.734723475976807100E-016 ) ) ;
#115 = DIRECTION ( 'NONE',  ( -1.000000000000000000, 0.0000000000000000000, 0.0000000000000000000 ) ) ;
#116 = FILL_AREA_STYLE_COLOUR ( '', #248 ) ;
#117 = MECHANICAL_DESIGN_GEOMETRIC_PRESENTATION_REPRESENTATION (  '', ( #51 ), #169 ) ;
#118 = VECTOR ( 'NONE', #3, 1000.000000000000000 ) ;
#119 = DIRECTION ( 'NONE',  ( 0.0000000000000000000, 0.0000000000000000000, 1.000000000000000000 ) ) ;
#120 = CARTESIAN_POINT ( 'NONE',  ( 2.499999999999999600, 0.5000000000000000000, 2.500000000000000000 ) ) ;
#121 = PRODUCT_DEFINITION ( 'UNKNOWN', '', #143, #271 ) ;
#122 = APPLICATION_CONTEXT ( 'automotive_design' ) ;
#123 = CARTESIAN_POINT ( 'NONE',  ( -2.499999999999999600, 0.0000000000000000000, -2.499999999999999600 ) ) ;
#124 = AXIS2_PLACEMENT_3D ( 'NONE', #105, #47, #194 ) ;
#125 = ORIENTED_EDGE ( 'NONE', *, *, #14, .T. ) ;
#126 = EDGE_CURVE ( 'NONE', #46, #289, #96, .T. ) ;
#127 = SURFACE_SIDE_STYLE ('',( #33 ) ) ;
#128 =( NAMED_UNIT ( * ) SI_UNIT ( $, .STERADIAN. ) SOLID_ANGLE_UNIT ( ) );
#129 = STYLED_ITEM ( 'NONE', ( #258 ), #251 ) ;
#130 = SURFACE_STYLE_USAGE ( .BOTH. , #144 ) ;
#131 = SURFACE_STYLE_FILL_AREA ( #285 ) ;
#132 = VERTEX_POINT ( 'NONE', #183 ) ;
#133 =( GEOMETRIC_REPRESENTATION_CONTEXT ( 3 ) GLOBAL_UNCERTAINTY_ASSIGNED_CONTEXT ( ( #170 ) ) GLOBAL_UNIT_ASSIGNED_CONTEXT ( ( #34, #65, #247 ) ) REPRESENTATION_CONTEXT ( 'NONE', 'WORKASPACE' ) );
#134 = PRESENTATION_STYLE_ASSIGNMENT (( #130 ) ) ;
#135 = AXIS2_PLACEMENT_3D ( 'NONE', #165, #209, #81 ) ;
#136 = SURFACE_STYLE_FILL_AREA ( #89 ) ;
#137 = VECTOR ( 'NONE', #37, 1000.000000000000000 ) ;
#138 = CARTESIAN_POINT ( 'NONE',  ( 0.0000000000000000000, 0.0000000000000000000, 0.0000000000000000000 ) ) ;
#139 = COLOUR_RGB ( '',1.000000000000000000, 1.000000000000000000, 0.5019607843137254800 ) ;
#140 =( NAMED_UNIT ( * ) PLANE_ANGLE_UNIT ( ) SI_UNIT ( $, .RADIAN. ) );
#141 = ORIENTED_EDGE ( 'NONE', *, *, #249, .T. ) ;
#142 = ORIENTED_EDGE ( 'NONE', *, *, #14, .F. ) ;
#143 = PRODUCT_DEFINITION_FORMATION_WITH_SPECIFIED_SOURCE ( 'ANY', '', #22, .NOT_KNOWN. ) ;
#144 = SURFACE_SIDE_STYLE ('',( #254 ) ) ;
#145 = FACE_OUTER_BOUND ( 'NONE', #152, .T. ) ;
#146 = FACE_OUTER_BOUND ( 'NONE', #205, .T. ) ;
#147 = FILL_AREA_STYLE ('',( #98 ) ) ;
#148 = ORIENTED_EDGE ( 'NONE', *, *, #291, .T. ) ;
#149 = SURFACE_STYLE_USAGE ( .BOTH. , #229 ) ;
#150 = MECHANICAL_DESIGN_GEOMETRIC_PRESENTATION_REPRESENTATION (  '', ( #50 ), #182 ) ;
#151 = CLOSED_SHELL ( 'NONE', ( #173, #74, #8, #94, #281, #195 ) ) ;
#152 = EDGE_LOOP ( 'NONE', ( #286, #239, #242, #76 ) ) ;
#153 = AXIS2_PLACEMENT_3D ( 'NONE', #112, #110, #187 ) ;
#154 = FILL_AREA_STYLE_COLOUR ( '', #139 ) ;
#155 = CARTESIAN_POINT ( 'NONE',  ( -2.499999999999998700, 0.5000000000000000000, 2.500000000000000400 ) ) ;
#156 = PRESENTATION_STYLE_ASSIGNMENT (( #241 ) ) ;
#157 = CARTESIAN_POINT ( 'NONE',  ( -2.499999999999998700, 0.5000000000000000000, 2.500000000000000400 ) ) ;
#158 = UNCERTAINTY_MEASURE_WITH_UNIT (LENGTH_MEASURE( 1.000000000000000100E-005 ), #23, 'distance_accuracy_value', 'NONE');
#159 = LINE ( 'NONE', #256, #99 ) ;
#160 = PRODUCT_RELATED_PRODUCT_CATEGORY ( 'part', '', ( #22 ) ) ;
#161 = PRESENTATION_LAYER_ASSIGNMENT (  '', '', ( #92 ) ) ;
#162 = VECTOR ( 'NONE', #20, 1000.000000000000000 ) ;
#163 = COLOUR_RGB ( '',1.000000000000000000, 1.000000000000000000, 0.5019607843137254800 ) ;
#164 = MANIFOLD_SOLID_BREP ( 'Boss-Extrude1', #151 ) ;
#165 = CARTESIAN_POINT ( 'NONE',  ( 0.0000000000000000000, 0.0000000000000000000, 0.0000000000000000000 ) ) ;
#166 =( GEOMETRIC_REPRESENTATION_CONTEXT ( 3 ) GLOBAL_UNCERTAINTY_ASSIGNED_CONTEXT ( ( #158 ) ) GLOBAL_UNIT_ASSIGNED_CONTEXT ( ( #23, #79, #70 ) ) REPRESENTATION_CONTEXT ( 'NONE', 'WORKASPACE' ) );
#167 = UNCERTAINTY_MEASURE_WITH_UNIT (LENGTH_MEASURE( 1.000000000000000100E-005 ), #211, 'distance_accuracy_value', 'NONE');
#168 =( LENGTH_UNIT ( ) NAMED_UNIT ( * ) SI_UNIT ( .MILLI., .METRE. ) );
#169 =( GEOMETRIC_REPRESENTATION_CONTEXT ( 3 ) GLOBAL_UNCERTAINTY_ASSIGNED_CONTEXT ( ( #287 ) ) GLOBAL_UNIT_ASSIGNED_CONTEXT ( ( #181, #97, #253 ) ) REPRESENTATION_CONTEXT ( 'NONE', 'WORKASPACE' ) );
#170 = UNCERTAINTY_MEASURE_WITH_UNIT (LENGTH_MEASURE( 1.000000000000000100E-005 ), #34, 'distance_accuracy_value', 'NONE');
#171 = LINE ( 'NONE', #288, #210 ) ;
#172 = DIRECTION ( 'NONE',  ( -0.0000000000000000000, -1.000000000000000000, -0.0000000000000000000 ) ) ;
#173 = ADVANCED_FACE ( 'NONE', ( #146 ), #217, .F. ) ;
#174 = PRESENTATION_LAYER_ASSIGNMENT (  '', '', ( #51 ) ) ;
#175 = CARTESIAN_POINT ( 'NONE',  ( -2.499999999999999600, 0.0000000000000000000, -2.499999999999999600 ) ) ;
#176 =( NAMED_UNIT ( * ) PLANE_ANGLE_UNIT ( ) SI_UNIT ( $, .RADIAN. ) );
#177 = DIRECTION ( 'NONE',  ( 1.000000000000000000, 0.0000000000000000000, -8.673617379884036700E-017 ) ) ;
#178 = PLANE ( 'NONE',  #53 ) ;
#179 = LINE ( 'NONE', #198, #118 ) ;
#180 = VERTEX_POINT ( 'NONE', #120 ) ;
#181 =( LENGTH_UNIT ( ) NAMED_UNIT ( * ) SI_UNIT ( .MILLI., .METRE. ) );
#182 =( GEOMETRIC_REPRESENTATION_CONTEXT ( 3 ) GLOBAL_UNCERTAINTY_ASSIGNED_CONTEXT ( ( #167 ) ) GLOBAL_UNIT_ASSIGNED_CONTEXT ( ( #211, #48, #213 ) ) REPRESENTATION_CONTEXT ( 'NONE', 'WORKASPACE' ) );
#183 = CARTESIAN_POINT ( 'NONE',  ( -2.499999999999999600, 0.5000000000000000000, -2.499999999999999600 ) ) ;
#184 =( LENGTH_UNIT ( ) NAMED_UNIT ( * ) SI_UNIT ( .MILLI., .METRE. ) );
#185 = VERTEX_POINT ( 'NONE', #73 ) ;
#186 = DIRECTION ( 'NONE',  ( -0.0000000000000000000, -0.0000000000000000000, -1.000000000000000000 ) ) ;
#187 = DIRECTION ( 'NONE',  ( -1.000000000000000000, 0.0000000000000000000, 8.673617379884037900E-017 ) ) ;
#188 = SURFACE_STYLE_USAGE ( .BOTH. , #7 ) ;
#189 = CARTESIAN_POINT ( 'NONE',  ( -2.499999999999998700, 0.0000000000000000000, 2.500000000000000400 ) ) ;
#190 = EDGE_CURVE ( 'NONE', #221, #85, #171, .T. ) ;
#191 = DIRECTION ( 'NONE',  ( 1.000000000000000000, 0.0000000000000000000, 0.0000000000000000000 ) ) ;
#192 = PRESENTATION_STYLE_ASSIGNMENT (( #228 ) ) ;
#193 = CARTESIAN_POINT ( 'NONE',  ( 2.499999999999999600, 0.5000000000000000000, -2.500000000000000000 ) ) ;
#194 = DIRECTION ( 'NONE',  ( 0.0000000000000000000, -0.0000000000000000000, 1.000000000000000000 ) ) ;
#195 = ADVANCED_FACE ( 'NONE', ( #244 ), #104, .F. ) ;
#196 = FACE_OUTER_BOUND ( 'NONE', #109, .T. ) ;
#197 = UNCERTAINTY_MEASURE_WITH_UNIT (LENGTH_MEASURE( 1.000000000000000100E-005 ), #13, 'distance_accuracy_value', 'NONE');
#198 = CARTESIAN_POINT ( 'NONE',  ( -2.499999999999998700, 0.5000000000000000000, 2.500000000000000400 ) ) ;
#199 =( GEOMETRIC_REPRESENTATION_CONTEXT ( 3 ) GLOBAL_UNCERTAINTY_ASSIGNED_CONTEXT ( ( #197 ) ) GLOBAL_UNIT_ASSIGNED_CONTEXT ( ( #13, #176, #27 ) ) REPRESENTATION_CONTEXT ( 'NONE', 'WORKASPACE' ) );
#200 = CARTESIAN_POINT ( 'NONE',  ( -2.499999999999999600, 0.0000000000000000000, -2.499999999999999600 ) ) ;
#201 = STYLED_ITEM ( 'NONE', ( #134 ), #281 ) ;
#202 = ORIENTED_EDGE ( 'NONE', *, *, #190, .F. ) ;
#203 = ORIENTED_EDGE ( 'NONE', *, *, #222, .T. ) ;
#204 = EDGE_CURVE ( 'NONE', #180, #221, #159, .T. ) ;
#205 = EDGE_LOOP ( 'NONE', ( #10, #31, #268, #90 ) ) ;
#206 = DIRECTION ( 'NONE',  ( -1.000000000000000000, -0.0000000000000000000, 8.673617379884036700E-017 ) ) ;
#207 = FILL_AREA_STYLE ('',( #108 ) ) ;
#208 = SURFACE_STYLE_USAGE ( .BOTH. , #75 ) ;
#209 = DIRECTION ( 'NONE',  ( -0.0000000000000000000, 1.000000000000000000, 0.0000000000000000000 ) ) ;
#210 = VECTOR ( 'NONE', #172, 1000.000000000000000 ) ;
#211 =( LENGTH_UNIT ( ) NAMED_UNIT ( * ) SI_UNIT ( .MILLI., .METRE. ) );
#212 = SURFACE_STYLE_USAGE ( .BOTH. , #269 ) ;
#213 =( NAMED_UNIT ( * ) SI_UNIT ( $, .STERADIAN. ) SOLID_ANGLE_UNIT ( ) );
#214 =( LENGTH_UNIT ( ) NAMED_UNIT ( * ) SI_UNIT ( .MILLI., .METRE. ) );
#215 = STYLED_ITEM ( 'NONE', ( #156 ), #164 ) ;
#216 = MECHANICAL_DESIGN_GEOMETRIC_PRESENTATION_REPRESENTATION (  '', ( #215 ), #133 ) ;
#217 = PLANE ( 'NONE',  #246 ) ;
#218 = MECHANICAL_DESIGN_GEOMETRIC_PRESENTATION_REPRESENTATION (  '', ( #38 ), #166 ) ;
#219 = DIRECTION ( 'NONE',  ( 8.673617379884036700E-017, -0.0000000000000000000, 1.000000000000000000 ) ) ;
#220 = ORIENTED_EDGE ( 'NONE', *, *, #222, .F. ) ;
#221 = VERTEX_POINT ( 'NONE', #193 ) ;
#222 = EDGE_CURVE ( 'NONE', #221, #132, #16, .T. ) ;
#223 = DIRECTION ( 'NONE',  ( 1.734723475976807100E-016, 0.0000000000000000000, 1.000000000000000000 ) ) ;
#224 = ORIENTED_EDGE ( 'NONE', *, *, #292, .T. ) ;
#225 = SURFACE_SIDE_STYLE ('',( #252 ) ) ;
#226 = FILL_AREA_STYLE_COLOUR ( '', #24 ) ;
#227 = PRODUCT_CONTEXT ( 'NONE', #122, 'mechanical' ) ;
#228 = SURFACE_STYLE_USAGE ( .BOTH. , #225 ) ;
#229 = SURFACE_SIDE_STYLE ('',( #131 ) ) ;
#230 = PRESENTATION_STYLE_ASSIGNMENT (( #232 ) ) ;
#231 = EDGE_CURVE ( 'NONE', #78, #180, #266, .T. ) ;
#232 = SURFACE_STYLE_USAGE ( .BOTH. , #44 ) ;
#233 = PRESENTATION_LAYER_ASSIGNMENT (  '', '', ( #38 ) ) ;
#234 = DIRECTION ( 'NONE',  ( 0.0000000000000000000, 0.0000000000000000000, 1.000000000000000000 ) ) ;
#235 = ORIENTED_EDGE ( 'NONE', *, *, #231, .T. ) ;
#236 = PLANE ( 'NONE',  #153 ) ;
#237 = CARTESIAN_POINT ( 'NONE',  ( -2.499999999999998700, 0.0000000000000000000, 2.500000000000000400 ) ) ;
#238 = COLOUR_RGB ( '',0.0000000000000000000, 0.7529411764705882200, 0.0000000000000000000 ) ;
#239 = ORIENTED_EDGE ( 'NONE', *, *, #291, .F. ) ;
#240 = UNCERTAINTY_MEASURE_WITH_UNIT (LENGTH_MEASURE( 1.000000000000000100E-005 ), #214, 'distance_accuracy_value', 'NONE');
#241 = SURFACE_STYLE_USAGE ( .BOTH. , #127 ) ;
#242 = ORIENTED_EDGE ( 'NONE', *, *, #231, .F. ) ;
#243 = FACE_OUTER_BOUND ( 'NONE', #26, .T. ) ;
#244 = FACE_OUTER_BOUND ( 'NONE', #43, .T. ) ;
#245 =( LENGTH_UNIT ( ) NAMED_UNIT ( * ) SI_UNIT ( .MILLI., .METRE. ) );
#246 = AXIS2_PLACEMENT_3D ( 'NONE', #95, #114, #18 ) ;
#247 =( NAMED_UNIT ( * ) SI_UNIT ( $, .STERADIAN. ) SOLID_ANGLE_UNIT ( ) );
#248 = COLOUR_RGB ( '',1.000000000000000000, 1.000000000000000000, 0.5019607843137254800 ) ;
#249 = EDGE_CURVE ( 'NONE', #85, #46, #12, .T. ) ;
#250 = SURFACE_STYLE_FILL_AREA ( #17 ) ;
#251 = ADVANCED_BREP_SHAPE_REPRESENTATION ( 'CTN009238', ( #164, #19 ), #67 ) ;
#252 = SURFACE_STYLE_FILL_AREA ( #64 ) ;
#253 =( NAMED_UNIT ( * ) SI_UNIT ( $, .STERADIAN. ) SOLID_ANGLE_UNIT ( ) );
#254 = SURFACE_STYLE_FILL_AREA ( #147 ) ;
#255 = FILL_AREA_STYLE_COLOUR ( '', #69 ) ;
#256 = CARTESIAN_POINT ( 'NONE',  ( 2.499999999999999600, 0.5000000000000000000, -2.500000000000000000 ) ) ;
#257 = ORIENTED_EDGE ( 'NONE', *, *, #35, .F. ) ;
#258 = PRESENTATION_STYLE_ASSIGNMENT (( #208 ) ) ;
#259 =( NAMED_UNIT ( * ) PLANE_ANGLE_UNIT ( ) SI_UNIT ( $, .RADIAN. ) );
#260 =( GEOMETRIC_REPRESENTATION_CONTEXT ( 3 ) GLOBAL_UNCERTAINTY_ASSIGNED_CONTEXT ( ( #240 ) ) GLOBAL_UNIT_ASSIGNED_CONTEXT ( ( #214, #77, #28 ) ) REPRESENTATION_CONTEXT ( 'NONE', 'WORKASPACE' ) );
#261 = LINE ( 'NONE', #5, #21 ) ;
#262 = CARTESIAN_POINT ( 'NONE',  ( 2.499999999999999600, 0.0000000000000000000, -2.500000000000000000 ) ) ;
#263 = PLANE ( 'NONE',  #124 ) ;
#264 = VECTOR ( 'NONE', #206, 1000.000000000000000 ) ;
#265 = STYLED_ITEM ( 'NONE', ( #91 ), #74 ) ;
#266 = LINE ( 'NONE', #157, #162 ) ;
#267 =( NAMED_UNIT ( * ) PLANE_ANGLE_UNIT ( ) SI_UNIT ( $, .RADIAN. ) );
#268 = ORIENTED_EDGE ( 'NONE', *, *, #292, .F. ) ;
#269 = SURFACE_SIDE_STYLE ('',( #100 ) ) ;
#270 = PRESENTATION_LAYER_ASSIGNMENT (  '', '', ( #215 ) ) ;
#271 = PRODUCT_DEFINITION_CONTEXT ( 'detailed design', #4, 'design' ) ;
#272 = LINE ( 'NONE', #189, #39 ) ;
#273 = FILL_AREA_STYLE ('',( #226 ) ) ;
#274 = PRESENTATION_LAYER_ASSIGNMENT (  '', '', ( #50 ) ) ;
#275 = DIRECTION ( 'NONE',  ( 1.734723475976807100E-016, 0.0000000000000000000, 1.000000000000000000 ) ) ;
#276 = PRESENTATION_LAYER_ASSIGNMENT (  '', '', ( #201 ) ) ;
#277 = ORIENTED_EDGE ( 'NONE', *, *, #190, .T. ) ;
#278 = CARTESIAN_POINT ( 'NONE',  ( 2.499999999999999600, 0.5000000000000000000, -2.500000000000000000 ) ) ;
#279 = LINE ( 'NONE', #54, #9 ) ;
#280 = UNCERTAINTY_MEASURE_WITH_UNIT (LENGTH_MEASURE( 1.000000000000000100E-005 ), #184, 'distance_accuracy_value', 'NONE');
#281 = ADVANCED_FACE ( 'NONE', ( #243 ), #263, .T. ) ;
#282 = PRESENTATION_LAYER_ASSIGNMENT (  '', '', ( #265 ) ) ;
#283 = SHAPE_DEFINITION_REPRESENTATION ( #111, #251 ) ;
#284 = PLANE ( 'NONE',  #62 ) ;
#285 = FILL_AREA_STYLE ('',( #116 ) ) ;
#286 = ORIENTED_EDGE ( 'NONE', *, *, #103, .T. ) ;
#287 = UNCERTAINTY_MEASURE_WITH_UNIT (LENGTH_MEASURE( 1.000000000000000100E-005 ), #181, 'distance_accuracy_value', 'NONE');
#288 = CARTESIAN_POINT ( 'NONE',  ( 2.499999999999999600, 0.5000000000000000000, -2.500000000000000000 ) ) ;
#289 = VERTEX_POINT ( 'NONE', #237 ) ;
#290 = FILL_AREA_STYLE_COLOUR ( '', #93 ) ;
#291 = EDGE_CURVE ( 'NONE', #180, #185, #36, .T. ) ;
#292 = EDGE_CURVE ( 'NONE', #132, #78, #261, .T. ) ;
ENDSEC;
END-ISO-10303-21;
