ISO-10303-21;
HEADER;
FILE_DESCRIPTION (( 'STEP AP203' ),
    '1' );
FILE_NAME ('Web Model 45254_45641.step',
    '2017-04-10T16:33:52',
    ( '' ),
    ( '' ),
    'SwSTEP 2.0',
    'SolidWorks 2016',
    '' );
FILE_SCHEMA (( 'CONFIG_CONTROL_DESIGN' ));
ENDSEC;

DATA;
#1 = SECURITY_CLASSIFICATION_LEVEL ( 'unclassified' ) ;
#2 = AXIS2_PLACEMENT_3D ( 'NONE', #20, #126, #33 ) ;
#3 = LOCAL_TIME ( 12, 33, 52.00000000000000000, #107 ) ;
#4 = AXIS2_PLACEMENT_3D ( 'NONE', #54, #63, #30 ) ;
#5 = CALENDAR_DATE ( 2017, 10, 4 ) ;
#6 = DATE_TIME_ROLE ( 'classification_date' ) ;
#7 = EDGE_CURVE ( 'NONE', #77, #11, #172, .T. ) ;
#8 = LOCAL_TIME ( 12, 33, 52.00000000000000000, #112 ) ;
#9 = PRODUCT_DEFINITION_FORMATION_WITH_SPECIFIED_SOURCE ( 'ANY', '', #28, .NOT_KNOWN. ) ;
#10 = ORIENTED_EDGE ( 'NONE', *, *, #51, .F. ) ;
#11 = VERTEX_POINT ( 'NONE', #68 ) ;
#12 = AXIS2_PLACEMENT_3D ( 'NONE', #72, #81, #60 ) ;
#13 = CYLINDRICAL_SURFACE ( 'NONE', #149, 15.00000000000000000 ) ;
#14 = MECHANICAL_CONTEXT ( 'NONE', #106, 'mechanical' ) ;
#15 = PERSON_AND_ORGANIZATION_ROLE ( 'design_supplier' ) ;
#16 = ORGANIZATION ( 'UNSPECIFIED', 'UNSPECIFIED', '' ) ;
#17 = DIRECTION ( 'NONE',  ( -0.0000000000000000000, -0.0000000000000000000, -1.000000000000000000 ) ) ;
#18 = DIRECTION ( 'NONE',  ( 1.000000000000000000, 0.0000000000000000000, 0.0000000000000000000 ) ) ;
#19 = PERSON_AND_ORGANIZATION_ROLE ( 'creator' ) ;
#20 = CARTESIAN_POINT ( 'NONE',  ( 0.0000000000000000000, 0.0000000000000000000, 0.0000000000000000000 ) ) ;
#21 = APPROVAL_DATE_TIME ( #127, #142 ) ;
#22 = APPROVAL_STATUS ( 'not_yet_approved' ) ;
#23 = AXIS2_PLACEMENT_3D ( 'NONE', #143, #141, #122 ) ;
#24 = DIRECTION ( 'NONE',  ( -0.0000000000000000000, -0.0000000000000000000, -1.000000000000000000 ) ) ;
#25 = DATE_AND_TIME ( #131, #61 ) ;
#26 = AXIS2_PLACEMENT_3D ( 'NONE', #56, #144, #46 ) ;
#27 = PLANE ( 'NONE',  #4 ) ;
#28 = PRODUCT ( 'Web Model 45254_45641', 'Web Model 45254_45641', '', ( #14 ) ) ;
#29 = PERSON_AND_ORGANIZATION_ROLE ( 'creator' ) ;
#30 = DIRECTION ( 'NONE',  ( 1.000000000000000000, 0.0000000000000000000, -0.0000000000000000000 ) ) ;
#31 = APPROVAL_DATE_TIME ( #140, #64 ) ;
#32 = APPROVAL_STATUS ( 'not_yet_approved' ) ;
#33 = DIRECTION ( 'NONE',  ( 1.000000000000000000, 0.0000000000000000000, -0.0000000000000000000 ) ) ;
#34 = APPROVAL_PERSON_ORGANIZATION ( #145, #142, #55 ) ;
#35 = PERSON_AND_ORGANIZATION ( #175, #16 ) ;
#36 = ORIENTED_EDGE ( 'NONE', *, *, #79, .T. ) ;
#37 = EDGE_LOOP ( 'NONE', ( #48, #10, #114, #36 ) ) ;
#38 = ADVANCED_FACE ( 'NONE', ( #151 ), #84, .F. ) ;
#39 = AXIS2_PLACEMENT_3D ( 'NONE', #108, #97, #18 ) ;
#40 = CIRCLE ( 'NONE', #26, 15.00000000000000000 ) ;
#41 = CC_DESIGN_PERSON_AND_ORGANIZATION_ASSIGNMENT ( #50, #162, ( #100 ) ) ;
#42 = APPROVAL_STATUS ( 'not_yet_approved' ) ;
#43 = CC_DESIGN_APPROVAL ( #95, ( #100 ) ) ;
#44 = APPROVAL_PERSON_ORGANIZATION ( #154, #64, #121 ) ;
#45 = CARTESIAN_POINT ( 'NONE',  ( 0.0000000000000000000, 0.0000000000000000000, 2.000000000000000000 ) ) ;
#46 = DIRECTION ( 'NONE',  ( 1.000000000000000000, 0.0000000000000000000, 0.0000000000000000000 ) ) ;
#47 = COORDINATED_UNIVERSAL_TIME_OFFSET ( 5, 0, .BEHIND. ) ;
#48 = ORIENTED_EDGE ( 'NONE', *, *, #7, .F. ) ;
#49 = CARTESIAN_POINT ( 'NONE',  ( 15.00000000000000000, 1.836970198721029600E-015, 2.000000000000000000 ) ) ;
#50 = PERSON_AND_ORGANIZATION ( #175, #16 ) ;
#51 = EDGE_CURVE ( 'NONE', #129, #77, #40, .T. ) ;
#52 = CIRCLE ( 'NONE', #39, 15.00000000000000000 ) ;
#53 = APPLICATION_CONTEXT ( 'configuration controlled 3d designs of mechanical parts and assemblies' ) ;
#54 = CARTESIAN_POINT ( 'NONE',  ( 0.0000000000000000000, 0.0000000000000000000, 2.000000000000000000 ) ) ;
#55 = APPROVAL_ROLE ( '' ) ;
#56 = CARTESIAN_POINT ( 'NONE',  ( 0.0000000000000000000, 0.0000000000000000000, 2.000000000000000000 ) ) ;
#57 = CARTESIAN_POINT ( 'NONE',  ( 15.00000000000000000, 1.836970198721029600E-015, 2.000000000000000000 ) ) ;
#58 = CALENDAR_DATE ( 2017, 10, 4 ) ;
#59 = EDGE_CURVE ( 'NONE', #129, #170, #104, .T. ) ;
#60 = DIRECTION ( 'NONE',  ( -1.000000000000000000, 0.0000000000000000000, 0.0000000000000000000 ) ) ;
#61 = LOCAL_TIME ( 12, 33, 52.00000000000000000, #169 ) ;
#62 = EDGE_LOOP ( 'NONE', ( #171, #152 ) ) ;
#63 = DIRECTION ( 'NONE',  ( 0.0000000000000000000, 0.0000000000000000000, 1.000000000000000000 ) ) ;
#64 = APPROVAL ( #42, 'UNSPECIFIED' ) ;
#65 = CIRCLE ( 'NONE', #23, 15.00000000000000000 ) ;
#66 = UNCERTAINTY_MEASURE_WITH_UNIT (LENGTH_MEASURE( 1.000000000000000100E-005 ), #123, 'distance_accuracy_value', 'NONE');
#67 = CARTESIAN_POINT ( 'NONE',  ( -15.00000000000000000, 0.0000000000000000000, 2.000000000000000000 ) ) ;
#68 = CARTESIAN_POINT ( 'NONE',  ( 15.00000000000000000, 1.836970198721029600E-015, 0.0000000000000000000 ) ) ;
#69 = CALENDAR_DATE ( 2017, 10, 4 ) ;
#70 = DATE_TIME_ROLE ( 'creation_date' ) ;
#71 = DIRECTION ( 'NONE',  ( 0.0000000000000000000, 0.0000000000000000000, 1.000000000000000000 ) ) ;
#72 = CARTESIAN_POINT ( 'NONE',  ( 0.0000000000000000000, 0.0000000000000000000, 2.000000000000000000 ) ) ;
#73 = DATE_AND_TIME ( #5, #110 ) ;
#74 = ADVANCED_FACE ( 'NONE', ( #105 ), #93, .T. ) ;
#75 = CALENDAR_DATE ( 2017, 10, 4 ) ;
#76 = CC_DESIGN_PERSON_AND_ORGANIZATION_ASSIGNMENT ( #158, #15, ( #9 ) ) ;
#77 = VERTEX_POINT ( 'NONE', #49 ) ;
#78 = DESIGN_CONTEXT ( 'detailed design', #53, 'design' ) ;
#79 = EDGE_CURVE ( 'NONE', #170, #11, #150, .T. ) ;
#80 = VECTOR ( 'NONE', #17, 1000.000000000000000 ) ;
#81 = DIRECTION ( 'NONE',  ( -0.0000000000000000000, -0.0000000000000000000, -1.000000000000000000 ) ) ;
#82 = CARTESIAN_POINT ( 'NONE',  ( 0.0000000000000000000, 0.0000000000000000000, 0.0000000000000000000 ) ) ;
#83 = PERSON_AND_ORGANIZATION ( #175, #16 ) ;
#84 = PLANE ( 'NONE',  #2 ) ;
#85 = CC_DESIGN_APPROVAL ( #142, ( #9 ) ) ;
#86 = ADVANCED_BREP_SHAPE_REPRESENTATION ( 'Web Model 45254_45641', ( #137, #102 ), #160 ) ;
#87 = PERSON_AND_ORGANIZATION ( #175, #16 ) ;
#88 = EDGE_CURVE ( 'NONE', #11, #170, #65, .T. ) ;
#89 = CC_DESIGN_SECURITY_CLASSIFICATION ( #100, ( #9 ) ) ;
#90 = APPROVAL_DATE_TIME ( #25, #95 ) ;
#91 = CC_DESIGN_PERSON_AND_ORGANIZATION_ASSIGNMENT ( #83, #153, ( #28 ) ) ;
#92 = CARTESIAN_POINT ( 'NONE',  ( -15.00000000000000000, 0.0000000000000000000, 0.0000000000000000000 ) ) ;
#93 = CYLINDRICAL_SURFACE ( 'NONE', #12, 15.00000000000000000 ) ;
#94 = DIRECTION ( 'NONE',  ( 0.0000000000000000000, 0.0000000000000000000, 1.000000000000000000 ) ) ;
#95 = APPROVAL ( #22, 'UNSPECIFIED' ) ;
#96 = PERSON_AND_ORGANIZATION ( #175, #16 ) ;
#97 = DIRECTION ( 'NONE',  ( 0.0000000000000000000, 0.0000000000000000000, 1.000000000000000000 ) ) ;
#98 = DIRECTION ( 'NONE',  ( -1.000000000000000000, 0.0000000000000000000, 0.0000000000000000000 ) ) ;
#99 = COORDINATED_UNIVERSAL_TIME_OFFSET ( 5, 0, .BEHIND. ) ;
#100 = SECURITY_CLASSIFICATION ( '', '', #1 ) ;
#101 = APPROVAL_PERSON_ORGANIZATION ( #35, #95, #128 ) ;
#102 = AXIS2_PLACEMENT_3D ( 'NONE', #82, #94, #163 ) ;
#103 = ORIENTED_EDGE ( 'NONE', *, *, #51, .T. ) ;
#104 = LINE ( 'NONE', #157, #174 ) ;
#105 = FACE_OUTER_BOUND ( 'NONE', #165, .T. ) ;
#106 = APPLICATION_CONTEXT ( 'configuration controlled 3d designs of mechanical parts and assemblies' ) ;
#107 = COORDINATED_UNIVERSAL_TIME_OFFSET ( 5, 0, .BEHIND. ) ;
#108 = CARTESIAN_POINT ( 'NONE',  ( 0.0000000000000000000, 0.0000000000000000000, 2.000000000000000000 ) ) ;
#109 = PRODUCT_DEFINITION ( 'UNKNOWN', '', #9, #78 ) ;
#110 = LOCAL_TIME ( 12, 33, 52.00000000000000000, #47 ) ;
#111 = CC_DESIGN_DATE_AND_TIME_ASSIGNMENT ( #148, #6, ( #100 ) ) ;
#112 = COORDINATED_UNIVERSAL_TIME_OFFSET ( 5, 0, .BEHIND. ) ;
#113 = ADVANCED_FACE ( 'NONE', ( #136 ), #13, .T. ) ;
#114 = ORIENTED_EDGE ( 'NONE', *, *, #59, .T. ) ;
#115 = CLOSED_SHELL ( 'NONE', ( #74, #113, #133, #38 ) ) ;
#116 = AXIS2_PLACEMENT_3D ( 'NONE', #166, #71, #155 ) ;
#117 = CC_DESIGN_PERSON_AND_ORGANIZATION_ASSIGNMENT ( #96, #29, ( #109 ) ) ;
#118 = FACE_OUTER_BOUND ( 'NONE', #156, .T. ) ;
#119 = CC_DESIGN_APPROVAL ( #64, ( #109 ) ) ;
#120 = SHAPE_DEFINITION_REPRESENTATION ( #168, #86 ) ;
#121 = APPROVAL_ROLE ( '' ) ;
#122 = DIRECTION ( 'NONE',  ( 1.000000000000000000, 0.0000000000000000000, 0.0000000000000000000 ) ) ;
#123 =( LENGTH_UNIT ( ) NAMED_UNIT ( * ) SI_UNIT ( .MILLI., .METRE. ) );
#124 =( NAMED_UNIT ( * ) PLANE_ANGLE_UNIT ( ) SI_UNIT ( $, .RADIAN. ) );
#125 = DIRECTION ( 'NONE',  ( -0.0000000000000000000, -0.0000000000000000000, -1.000000000000000000 ) ) ;
#126 = DIRECTION ( 'NONE',  ( 0.0000000000000000000, 0.0000000000000000000, 1.000000000000000000 ) ) ;
#127 = DATE_AND_TIME ( #58, #167 ) ;
#128 = APPROVAL_ROLE ( '' ) ;
#129 = VERTEX_POINT ( 'NONE', #67 ) ;
#130 = CC_DESIGN_DATE_AND_TIME_ASSIGNMENT ( #73, #70, ( #109 ) ) ;
#131 = CALENDAR_DATE ( 2017, 10, 4 ) ;
#132 = ORIENTED_EDGE ( 'NONE', *, *, #135, .F. ) ;
#133 = ADVANCED_FACE ( 'NONE', ( #118 ), #27, .T. ) ;
#134 = APPLICATION_PROTOCOL_DEFINITION ( 'international standard', 'config_control_design', 1994, #106 ) ;
#135 = EDGE_CURVE ( 'NONE', #77, #129, #52, .T. ) ;
#136 = FACE_OUTER_BOUND ( 'NONE', #37, .T. ) ;
#137 = MANIFOLD_SOLID_BREP ( 'Extrude1', #115 ) ;
#138 = APPLICATION_PROTOCOL_DEFINITION ( 'international standard', 'config_control_design', 1994, #53 ) ;
#139 = CC_DESIGN_PERSON_AND_ORGANIZATION_ASSIGNMENT ( #87, #19, ( #9 ) ) ;
#140 = DATE_AND_TIME ( #69, #3 ) ;
#141 = DIRECTION ( 'NONE',  ( 0.0000000000000000000, 0.0000000000000000000, 1.000000000000000000 ) ) ;
#142 = APPROVAL ( #32, 'UNSPECIFIED' ) ;
#143 = CARTESIAN_POINT ( 'NONE',  ( 0.0000000000000000000, 0.0000000000000000000, 0.0000000000000000000 ) ) ;
#144 = DIRECTION ( 'NONE',  ( 0.0000000000000000000, 0.0000000000000000000, 1.000000000000000000 ) ) ;
#145 = PERSON_AND_ORGANIZATION ( #175, #16 ) ;
#146 = ORIENTED_EDGE ( 'NONE', *, *, #88, .T. ) ;
#147 = ORIENTED_EDGE ( 'NONE', *, *, #7, .T. ) ;
#148 = DATE_AND_TIME ( #75, #8 ) ;
#149 = AXIS2_PLACEMENT_3D ( 'NONE', #45, #125, #98 ) ;
#150 = CIRCLE ( 'NONE', #116, 15.00000000000000000 ) ;
#151 = FACE_OUTER_BOUND ( 'NONE', #62, .T. ) ;
#152 = ORIENTED_EDGE ( 'NONE', *, *, #88, .F. ) ;
#153 = PERSON_AND_ORGANIZATION_ROLE ( 'design_owner' ) ;
#154 = PERSON_AND_ORGANIZATION ( #175, #16 ) ;
#155 = DIRECTION ( 'NONE',  ( 1.000000000000000000, 0.0000000000000000000, 0.0000000000000000000 ) ) ;
#156 = EDGE_LOOP ( 'NONE', ( #103, #161 ) ) ;
#157 = CARTESIAN_POINT ( 'NONE',  ( -15.00000000000000000, 0.0000000000000000000, 2.000000000000000000 ) ) ;
#158 = PERSON_AND_ORGANIZATION ( #175, #16 ) ;
#159 = ORIENTED_EDGE ( 'NONE', *, *, #59, .F. ) ;
#160 =( GEOMETRIC_REPRESENTATION_CONTEXT ( 3 ) GLOBAL_UNCERTAINTY_ASSIGNED_CONTEXT ( ( #66 ) ) GLOBAL_UNIT_ASSIGNED_CONTEXT ( ( #123, #124, #164 ) ) REPRESENTATION_CONTEXT ( 'NONE', 'WORKASPACE' ) );
#161 = ORIENTED_EDGE ( 'NONE', *, *, #135, .T. ) ;
#162 = PERSON_AND_ORGANIZATION_ROLE ( 'classification_officer' ) ;
#163 = DIRECTION ( 'NONE',  ( 1.000000000000000000, 0.0000000000000000000, 0.0000000000000000000 ) ) ;
#164 =( NAMED_UNIT ( * ) SI_UNIT ( $, .STERADIAN. ) SOLID_ANGLE_UNIT ( ) );
#165 = EDGE_LOOP ( 'NONE', ( #132, #147, #146, #159 ) ) ;
#166 = CARTESIAN_POINT ( 'NONE',  ( 0.0000000000000000000, 0.0000000000000000000, 0.0000000000000000000 ) ) ;
#167 = LOCAL_TIME ( 12, 33, 52.00000000000000000, #99 ) ;
#168 = PRODUCT_DEFINITION_SHAPE ( 'NONE', 'NONE',  #109 ) ;
#169 = COORDINATED_UNIVERSAL_TIME_OFFSET ( 5, 0, .BEHIND. ) ;
#170 = VERTEX_POINT ( 'NONE', #92 ) ;
#171 = ORIENTED_EDGE ( 'NONE', *, *, #79, .F. ) ;
#172 = LINE ( 'NONE', #57, #80 ) ;
#173 = PRODUCT_RELATED_PRODUCT_CATEGORY ( 'detail', '', ( #28 ) ) ;
#174 = VECTOR ( 'NONE', #24, 1000.000000000000000 ) ;
#175 = PERSON ( 'UNSPECIFIED', 'UNSPECIFIED', 'UNSPECIFIED', ('UNSPECIFIED'), ('UNSPECIFIED'), ('UNSPECIFIED') ) ;
ENDSEC;
END-ISO-10303-21;
