ISO-10303-21;
HEADER;
FILE_DESCRIPTION (( 'STEP AP203' ),
    '1' );
FILE_NAME ('25mm BEAMSPLITTER CUBE TS_35966.step',
    '2017-07-18T13:27:17',
    ( '' ),
    ( '' ),
    'SwSTEP 2.0',
    'SolidWorks 2016',
    '' );
FILE_SCHEMA (( 'CONFIG_CONTROL_DESIGN' ));
ENDSEC;

DATA;
#1 = APPROVAL ( #249, 'UNSPECIFIED' ) ;
#2 = LOCAL_TIME ( 9, 27, 17.00000000000000000, #87 ) ;
#3 = ORIENTED_EDGE ( 'NONE', *, *, #4, .F. ) ;
#4 = EDGE_CURVE ( 'NONE', #76, #12, #125, .T. ) ;
#5 = LOCAL_TIME ( 9, 27, 17.00000000000000000, #90 ) ;
#6 = PERSON_AND_ORGANIZATION_ROLE ( 'classification_officer' ) ;
#7 = APPROVAL_PERSON_ORGANIZATION ( #92, #1, #81 ) ;
#8 = DIRECTION ( 'NONE',  ( 0.0000000000000000000, 0.7071067811865439100, -0.7071067811865512400 ) ) ;
#9 =( NAMED_UNIT ( * ) PLANE_ANGLE_UNIT ( ) SI_UNIT ( $, .RADIAN. ) );
#10 = APPROVAL_DATE_TIME ( #94, #323 ) ;
#11 = PLANE ( 'NONE',  #200 ) ;
#12 = VERTEX_POINT ( 'NONE', #279 ) ;
#13 = DIRECTION ( 'NONE',  ( -1.000000000000000200, 0.0000000000000000000, 5.551115123125782700E-017 ) ) ;
#14 = CARTESIAN_POINT ( 'NONE',  ( 12.50000000000000000, 0.0000000000000000000, 17.67766952966377800 ) ) ;
#15 = APPLICATION_PROTOCOL_DEFINITION ( 'international standard', 'config_control_design', 1994, #188 ) ;
#16 = PRODUCT_RELATED_PRODUCT_CATEGORY ( 'detail', '', ( #327 ) ) ;
#17 = SECURITY_CLASSIFICATION_LEVEL ( 'unclassified' ) ;
#18 = DATE_TIME_ROLE ( 'creation_date' ) ;
#19 = PERSON ( 'NAUO-PER2', 'UNSPECIFIED', 'UNSPECIFIED', ('UNSPECIFIED'), ('UNSPECIFIED'), ('UNSPECIFIED') ) ;
#20 = COORDINATED_UNIVERSAL_TIME_OFFSET ( 5, 0, .BEHIND. ) ;
#21 = APPROVAL_ROLE ( '' ) ;
#22 = VERTEX_POINT ( 'NONE', #258 ) ;
#23 = CARTESIAN_POINT ( 'NONE',  ( 12.50000000000000000, 0.0000000000000000000, 17.67766952966377800 ) ) ;
#24 = APPROVAL_PERSON_ORGANIZATION ( #101, #323, #328 ) ;
#25 = ORIENTED_EDGE ( 'NONE', *, *, #4, .T. ) ;
#26 = CC_DESIGN_APPROVAL ( #1, ( #311 ) ) ;
#27 = SHAPE_REPRESENTATION ( '25x25 Right Angle Prism Master', ( #55 ), #326 ) ;
#28 = EDGE_CURVE ( 'NONE', #111, #22, #168, .T. ) ;
#29 = SHAPE_REPRESENTATION ( '25mm BEAMSPLITTER CUBE TS_35966', ( #135, #60, #84 ), #99 ) ;
#30 = VECTOR ( 'NONE', #160, 1000.000000000000000 ) ;
#31 = DATE_AND_TIME ( #112, #181 ) ;
#32 = EDGE_LOOP ( 'NONE', ( #144, #53, #41, #118 ) ) ;
#33 =( REPRESENTATION_RELATIONSHIP ('NONE','NONE', #29, #27 ) REPRESENTATION_RELATIONSHIP_WITH_TRANSFORMATION ( #203 )SHAPE_REPRESENTATION_RELATIONSHIP( ) );
#34 = COORDINATED_UNIVERSAL_TIME_OFFSET ( 5, 0, .BEHIND. ) ;
#35 = EDGE_LOOP ( 'NONE', ( #95, #153, #3, #49 ) ) ;
#36 = CC_DESIGN_SECURITY_CLASSIFICATION ( #175, ( #360 ) ) ;
#37 = ORIENTED_EDGE ( 'NONE', *, *, #47, .F. ) ;
#38 = AXIS2_PLACEMENT_3D ( 'NONE', #103, #291, #127 ) ;
#39 = PLANE ( 'NONE',  #335 ) ;
#40 = DATE_AND_TIME ( #119, #195 ) ;
#41 = ORIENTED_EDGE ( 'NONE', *, *, #109, .F. ) ;
#42 = CC_DESIGN_SECURITY_CLASSIFICATION ( #311, ( #304 ) ) ;
#43 = DIRECTION ( 'NONE',  ( -1.000000000000000000, -0.0000000000000000000, -0.0000000000000000000 ) ) ;
#44 =( LENGTH_UNIT ( ) NAMED_UNIT ( * ) SI_UNIT ( .MILLI., .METRE. ) );
#45 = PRODUCT_DEFINITION_SHAPE ( 'NONE', 'NONE',  #361 ) ;
#46 = PERSON_AND_ORGANIZATION_ROLE ( 'design_owner' ) ;
#47 = EDGE_CURVE ( 'NONE', #76, #116, #140, .T. ) ;
#48 = PLANE ( 'NONE',  #238 ) ;
#49 = ORIENTED_EDGE ( 'NONE', *, *, #47, .T. ) ;
#50 = DATE_TIME_ROLE ( 'classification_date' ) ;
#51 = APPROVAL_ROLE ( '' ) ;
#52 = PERSON_AND_ORGANIZATION ( #301, #336 ) ;
#53 = ORIENTED_EDGE ( 'NONE', *, *, #89, .F. ) ;
#54 = COORDINATED_UNIVERSAL_TIME_OFFSET ( 5, 0, .BEHIND. ) ;
#55 = AXIS2_PLACEMENT_3D ( 'NONE', #241, #72, #266 ) ;
#56 = ORIENTED_EDGE ( 'NONE', *, *, #122, .F. ) ;
#57 = APPROVAL ( #193, 'UNKNOWN' ) ;
#58 = DATE_AND_TIME ( #346, #357 ) ;
#59 = DIRECTION ( 'NONE',  ( 0.0000000000000000000, -0.7071067811865439100, 0.7071067811865512400 ) ) ;
#60 = AXIS2_PLACEMENT_3D ( 'NONE', #318, #156, #342 ) ;
#61 = PERSON_AND_ORGANIZATION ( #301, #336 ) ;
#62 = APPROVAL_STATUS ( 'not_yet_approved' ) ;
#63 = PRODUCT_RELATED_PRODUCT_CATEGORY ( 'detail', '', ( #272 ) ) ;
#64 = PERSON_AND_ORGANIZATION ( #351, #139 ) ;
#65 = VERTEX_POINT ( 'NONE', #317 ) ;
#66 = EDGE_CURVE ( 'NONE', #116, #111, #158, .T. ) ;
#67 = PERSON_AND_ORGANIZATION ( #301, #336 ) ;
#68 = COORDINATED_UNIVERSAL_TIME_OFFSET ( 5, 0, .BEHIND. ) ;
#69 = ORIENTED_EDGE ( 'NONE', *, *, #28, .F. ) ;
#70 = CARTESIAN_POINT ( 'NONE',  ( 12.50000000000000000, -2.164890140588744600E-015, -17.67766952966377800 ) ) ;
#71 = DATE_AND_TIME ( #226, #347 ) ;
#72 = DIRECTION ( 'NONE',  ( 0.0000000000000000000, 0.0000000000000000000, 1.000000000000000000 ) ) ;
#73 = DIRECTION ( 'NONE',  ( 0.0000000000000000000, -6.123233995736767300E-017, -1.000000000000000000 ) ) ;
#74 =( NAMED_UNIT ( * ) SI_UNIT ( $, .STERADIAN. ) SOLID_ANGLE_UNIT ( ) );
#75 = LOCAL_TIME ( 9, 27, 17.00000000000000000, #145 ) ;
#76 = VERTEX_POINT ( 'NONE', #243 ) ;
#77 = CARTESIAN_POINT ( 'NONE',  ( -12.50000000000000000, -2.164890140588744600E-015, -17.67766952966377800 ) ) ;
#78 = APPLICATION_PROTOCOL_DEFINITION ( 'international standard', 'config_control_design', 1994, #248 ) ;
#79 = CC_DESIGN_APPROVAL ( #57, ( #175 ) ) ;
#80 = DESIGN_CONTEXT ( 'detailed design', #248, 'design' ) ;
#81 = APPROVAL_ROLE ( '' ) ;
#82 = ORGANIZATION ( 'NAUO-ORG2', 'UNSPECIFIED', 'UNSPECIFIED' ) ;
#83 = PERSON_AND_ORGANIZATION_ROLE ( 'design_supplier' ) ;
#84 = AXIS2_PLACEMENT_3D ( 'NONE', #186, #13, #210 ) ;
#85 = DATE_AND_TIME ( #152, #230 ) ;
#86 = PRODUCT_DEFINITION ( 'UNKNOWN', '', #179, #296 ) ;
#87 = COORDINATED_UNIVERSAL_TIME_OFFSET ( 5, 0, .BEHIND. ) ;
#88 = ORIENTED_EDGE ( 'NONE', *, *, #109, .T. ) ;
#89 = EDGE_CURVE ( 'NONE', #65, #22, #250, .T. ) ;
#90 = COORDINATED_UNIVERSAL_TIME_OFFSET ( 5, 0, .BEHIND. ) ;
#91 = CARTESIAN_POINT ( 'NONE',  ( 12.50000000000000000, 17.67766952966358900, -1.112641391681767300E-015 ) ) ;
#92 = PERSON_AND_ORGANIZATION ( #301, #336 ) ;
#93 = DATE_TIME_ROLE ( 'classification_date' ) ;
#94 = DATE_AND_TIME ( #170, #242 ) ;
#95 = ORIENTED_EDGE ( 'NONE', *, *, #66, .T. ) ;
#96 = CC_DESIGN_DATE_AND_TIME_ASSIGNMENT ( #224, #220, ( #175 ) ) ;
#97 = UNCERTAINTY_MEASURE_WITH_UNIT (LENGTH_MEASURE( 1.000000000000000100E-005 ), #185, 'distance_accuracy_value', 'NONE');
#98 = PERSON_AND_ORGANIZATION ( #301, #336 ) ;
#99 =( GEOMETRIC_REPRESENTATION_CONTEXT ( 3 ) GLOBAL_UNCERTAINTY_ASSIGNED_CONTEXT ( ( #349 ) ) GLOBAL_UNIT_ASSIGNED_CONTEXT ( ( #44, #244, #74 ) ) REPRESENTATION_CONTEXT ( 'NONE', 'WORKASPACE' ) );
#100 = DIRECTION ( 'NONE',  ( 0.0000000000000000000, -0.7071067811865439100, -0.7071067811865512400 ) ) ;
#101 = PERSON_AND_ORGANIZATION ( #301, #336 ) ;
#102 = ORIENTED_EDGE ( 'NONE', *, *, #141, .F. ) ;
#103 = CARTESIAN_POINT ( 'NONE',  ( 0.0000000000000000000, 0.0000000000000000000, 0.0000000000000000000 ) ) ;
#104 = APPROVAL ( #163, 'UNSPECIFIED' ) ;
#105 = DIRECTION ( 'NONE',  ( 0.0000000000000000000, 0.0000000000000000000, 1.000000000000000000 ) ) ;
#106 = ADVANCED_FACE ( 'NONE', ( #165 ), #11, .T. ) ;
#107 = CARTESIAN_POINT ( 'NONE',  ( -12.50000000000000000, 0.0000000000000000000, 17.67766952966377800 ) ) ;
#108 = APPROVAL_ROLE ( '' ) ;
#109 = EDGE_CURVE ( 'NONE', #12, #65, #184, .T. ) ;
#110 = MECHANICAL_CONTEXT ( 'NONE', #321, 'mechanical' ) ;
#111 = VERTEX_POINT ( 'NONE', #107 ) ;
#112 = CALENDAR_DATE ( 2017, 18, 7 ) ;
#113 = PERSON_AND_ORGANIZATION_ROLE ( 'classification_officer' ) ;
#114 = DIRECTION ( 'NONE',  ( -1.000000000000000000, 0.0000000000000000000, 0.0000000000000000000 ) ) ;
#115 = PERSON_AND_ORGANIZATION ( #301, #336 ) ;
#116 = VERTEX_POINT ( 'NONE', #267 ) ;
#117 = CC_DESIGN_PERSON_AND_ORGANIZATION_ASSIGNMENT ( #64, #6, ( #175 ) ) ;
#118 = ORIENTED_EDGE ( 'NONE', *, *, #345, .T. ) ;
#119 = CALENDAR_DATE ( 2017, 18, 7 ) ;
#120 = EDGE_LOOP ( 'NONE', ( #126, #37, #102, #202 ) ) ;
#121 = CC_DESIGN_APPROVAL ( #104, ( #86 ) ) ;
#122 = EDGE_CURVE ( 'NONE', #22, #116, #196, .T. ) ;
#123 = PRODUCT_DEFINITION_SHAPE ( 'NONE', 'NONE',  #86 ) ;
#124 = DATE_AND_TIME ( #201, #274 ) ;
#125 = LINE ( 'NONE', #91, #130 ) ;
#126 = ORIENTED_EDGE ( 'NONE', *, *, #122, .T. ) ;
#127 = DIRECTION ( 'NONE',  ( 1.000000000000000000, 0.0000000000000000000, 0.0000000000000000000 ) ) ;
#128 = CARTESIAN_POINT ( 'NONE',  ( 12.50000000000000000, 17.67766952966358900, -1.112641391681767300E-015 ) ) ;
#129 = DIRECTION ( 'NONE',  ( 0.0000000000000000000, 0.0000000000000000000, 1.000000000000000000 ) ) ;
#130 = VECTOR ( 'NONE', #59, 999.9999999999998900 ) ;
#131 = DATE_TIME_ROLE ( 'creation_date' ) ;
#132 = SECURITY_CLASSIFICATION ( '', '', #233 ) ;
#133 = APPLICATION_CONTEXT ( 'configuration controlled 3d designs of mechanical parts and assemblies' ) ;
#134 = APPROVAL_STATUS ( 'not_yet_approved' ) ;
#135 = AXIS2_PLACEMENT_3D ( 'NONE', #154, #105, #294 ) ;
#136 = CARTESIAN_POINT ( 'NONE',  ( 12.50000000000000000, 17.67766952966358600, -3.469446951953614200E-015 ) ) ;
#137 = APPROVAL_DATE_TIME ( #207, #104 ) ;
#138 = CC_DESIGN_PERSON_AND_ORGANIZATION_ASSIGNMENT ( #61, #192, ( #86 ) ) ;
#139 = ORGANIZATION ( 'NAUO-ORG1', 'UNSPECIFIED', 'UNSPECIFIED' ) ;
#140 = LINE ( 'NONE', #128, #146 ) ;
#141 = EDGE_CURVE ( 'NONE', #65, #76, #190, .T. ) ;
#142 = PERSON_AND_ORGANIZATION ( #301, #336 ) ;
#143 = APPROVAL_PERSON_ORGANIZATION ( #221, #104, #350 ) ;
#144 = ORIENTED_EDGE ( 'NONE', *, *, #28, .T. ) ;
#145 = COORDINATED_UNIVERSAL_TIME_OFFSET ( 5, 0, .BEHIND. ) ;
#146 = VECTOR ( 'NONE', #276, 1000.000000000000000 ) ;
#147 = ORIENTED_EDGE ( 'NONE', *, *, #141, .T. ) ;
#148 = CC_DESIGN_SECURITY_CLASSIFICATION ( #132, ( #361 ) ) ;
#149 = APPROVAL_DATE_TIME ( #227, #172 ) ;
#150 = PLANE ( 'NONE',  #271 ) ;
#151 = CC_DESIGN_PERSON_AND_ORGANIZATION_ASSIGNMENT ( #287, #299, ( #327 ) ) ;
#152 = CALENDAR_DATE ( 2017, 18, 7 ) ;
#153 = ORIENTED_EDGE ( 'NONE', *, *, #345, .F. ) ;
#154 = CARTESIAN_POINT ( 'NONE',  ( 0.0000000000000000000, 0.0000000000000000000, 0.0000000000000000000 ) ) ;
#155 = CARTESIAN_POINT ( 'NONE',  ( 12.50000000000000000, 0.0000000000000000000, 17.67766952966377800 ) ) ;
#156 = DIRECTION ( 'NONE',  ( 1.000000000000000000, 0.0000000000000000000, 0.0000000000000000000 ) ) ;
#157 = PERSON_AND_ORGANIZATION ( #19, #82 ) ;
#158 = LINE ( 'NONE', #288, #171 ) ;
#159 = CC_DESIGN_DATE_AND_TIME_ASSIGNMENT ( #124, #18, ( #86 ) ) ;
#160 = DIRECTION ( 'NONE',  ( 0.0000000000000000000, 0.7071067811865439100, 0.7071067811865512400 ) ) ;
#161 = APPROVAL_ROLE ( '' ) ;
#162 = DATE_AND_TIME ( #237, #307 ) ;
#163 = APPROVAL_STATUS ( 'not_yet_approved' ) ;
#164 = ADVANCED_BREP_SHAPE_REPRESENTATION ( '', ( #229, #55 ), #326 ) ;
#165 = FACE_OUTER_BOUND ( 'NONE', #169, .T. ) ;
#166 =( REPRESENTATION_RELATIONSHIP ('NONE','NONE', #29, #27 ) REPRESENTATION_RELATIONSHIP_WITH_TRANSFORMATION ( #305 )SHAPE_REPRESENTATION_RELATIONSHIP( ) );
#167 = DATE_AND_TIME ( #240, #310 ) ;
#168 = LINE ( 'NONE', #320, #173 ) ;
#169 = EDGE_LOOP ( 'NONE', ( #180, #56, #69 ) ) ;
#170 = CALENDAR_DATE ( 2017, 18, 7 ) ;
#171 = VECTOR ( 'NONE', #187, 999.9999999999998900 ) ;
#172 = APPROVAL ( #62, 'UNKNOWN' ) ;
#173 = VECTOR ( 'NONE', #73, 1000.000000000000000 ) ;
#174 = PERSON_AND_ORGANIZATION ( #301, #336 ) ;
#175 = SECURITY_CLASSIFICATION ( '', '', #352 ) ;
#176 = DIRECTION ( 'NONE',  ( 0.0000000000000000000, 0.0000000000000000000, 1.000000000000000000 ) ) ;
#177 = DATE_AND_TIME ( #254, #316 ) ;
#178 = VECTOR ( 'NONE', #339, 1000.000000000000000 ) ;
#179 = PRODUCT_DEFINITION_FORMATION_WITH_SPECIFIED_SOURCE ( 'ANY', '', #327, .NOT_KNOWN. ) ;
#180 = ORIENTED_EDGE ( 'NONE', *, *, #66, .F. ) ;
#181 = LOCAL_TIME ( 9, 27, 17.00000000000000000, #54 ) ;
#182 = DIRECTION ( 'NONE',  ( 0.0000000000000000000, -0.7071067811865512400, -0.7071067811865439100 ) ) ;
#183 = PERSON_AND_ORGANIZATION ( #301, #336 ) ;
#184 = LINE ( 'NONE', #14, #178 ) ;
#185 =( LENGTH_UNIT ( ) NAMED_UNIT ( * ) SI_UNIT ( .MILLI., .METRE. ) );
#186 = CARTESIAN_POINT ( 'NONE',  ( 0.0000000000000000000, 0.0000000000000000000, 0.0000000000000000000 ) ) ;
#187 = DIRECTION ( 'NONE',  ( 0.0000000000000000000, -0.7071067811865439100, 0.7071067811865512400 ) ) ;
#188 = APPLICATION_CONTEXT ( 'configuration controlled 3d designs of mechanical parts and assemblies' ) ;
#189 = PERSON_AND_ORGANIZATION_ROLE ( 'design_supplier' ) ;
#190 = LINE ( 'NONE', #293, #30 ) ;
#191 = CC_DESIGN_APPROVAL ( #172, ( #132 ) ) ;
#192 = PERSON_AND_ORGANIZATION_ROLE ( 'creator' ) ;
#193 = APPROVAL_STATUS ( 'not_yet_approved' ) ;
#194 = CC_DESIGN_PERSON_AND_ORGANIZATION_ASSIGNMENT ( #300, #46, ( #272 ) ) ;
#195 = LOCAL_TIME ( 9, 27, 17.00000000000000000, #264 ) ;
#196 = LINE ( 'NONE', #77, #199 ) ;
#197 = APPROVAL_PERSON_ORGANIZATION ( #280, #231, #108 ) ;
#198 = APPROVAL ( #219, 'UNSPECIFIED' ) ;
#199 = VECTOR ( 'NONE', #353, 1000.000000000000000 ) ;
#200 = AXIS2_PLACEMENT_3D ( 'NONE', #209, #295, #129 ) ;
#201 = CALENDAR_DATE ( 2017, 18, 7 ) ;
#202 = ORIENTED_EDGE ( 'NONE', *, *, #89, .T. ) ;
#203 = ITEM_DEFINED_TRANSFORMATION ( 'NONE', 'NONE', #84,  #55 ) ;
#204 = FACE_OUTER_BOUND ( 'NONE', #355, .T. ) ;
#205 = CC_DESIGN_DATE_AND_TIME_ASSIGNMENT ( #162, #93, ( #132 ) ) ;
#206 = PRODUCT_DEFINITION ( 'UNKNOWN', '', #304, #80 ) ;
#207 = DATE_AND_TIME ( #282, #354 ) ;
#208 =( NAMED_UNIT ( * ) SI_UNIT ( $, .STERADIAN. ) SOLID_ANGLE_UNIT ( ) );
#209 = CARTESIAN_POINT ( 'NONE',  ( -12.50000000000000000, 17.67766952966358600, -3.469446951953614200E-015 ) ) ;
#210 = DIRECTION ( 'NONE',  ( -5.551115123125782700E-017, 0.0000000000000000000, -1.000000000000000200 ) ) ;
#211 = CC_DESIGN_APPROVAL ( #198, ( #179 ) ) ;
#212 = ADVANCED_FACE ( 'NONE', ( #214 ), #48, .F. ) ;
#213 = APPROVAL_DATE_TIME ( #284, #57 ) ;
#214 = FACE_OUTER_BOUND ( 'NONE', #32, .T. ) ;
#215 = MECHANICAL_CONTEXT ( 'NONE', #188, 'mechanical' ) ;
#216 = PERSON_AND_ORGANIZATION_ROLE ( 'classification_officer' ) ;
#217 = CONTEXT_DEPENDENT_SHAPE_REPRESENTATION ( #33, #45 ) ;
#218 = PRODUCT_DEFINITION_SHAPE ( 'NONE', 'NONE',  #360 ) ;
#219 = APPROVAL_STATUS ( 'not_yet_approved' ) ;
#220 = DATE_TIME_ROLE ( 'classification_date' ) ;
#221 = PERSON_AND_ORGANIZATION ( #301, #336 ) ;
#222 = DIRECTION ( 'NONE',  ( 0.0000000000000000000, 1.000000000000000000, -6.123233995736767300E-017 ) ) ;
#223 = SHAPE_DEFINITION_REPRESENTATION ( #278, #29 ) ;
#224 = DATE_AND_TIME ( #292, #2 ) ;
#225 = FACE_OUTER_BOUND ( 'NONE', #120, .T. ) ;
#226 = CALENDAR_DATE ( 2017, 18, 7 ) ;
#227 = DATE_AND_TIME ( #298, #5 ) ;
#228 = CC_DESIGN_PERSON_AND_ORGANIZATION_ASSIGNMENT ( #157, #283, ( #132 ) ) ;
#229 = MANIFOLD_SOLID_BREP ( 'Extrude1', #309 ) ;
#230 = LOCAL_TIME ( 9, 27, 17.00000000000000000, #303 ) ;
#231 = APPROVAL ( #269, 'UNSPECIFIED' ) ;
#232 = COORDINATED_UNIVERSAL_TIME_OFFSET ( 5, 0, .BEHIND. ) ;
#233 = SECURITY_CLASSIFICATION_LEVEL ( 'unclassified' ) ;
#234 = SHAPE_DEFINITION_REPRESENTATION ( #123, #27 ) ;
#235 = FACE_OUTER_BOUND ( 'NONE', #35, .T. ) ;
#236 = CC_DESIGN_PERSON_AND_ORGANIZATION_ASSIGNMENT ( #259, #251, ( #179 ) ) ;
#237 = CALENDAR_DATE ( 2017, 18, 7 ) ;
#238 = AXIS2_PLACEMENT_3D ( 'NONE', #23, #222, #290 ) ;
#239 = VECTOR ( 'NONE', #43, 1000.000000000000000 ) ;
#240 = CALENDAR_DATE ( 2017, 18, 7 ) ;
#241 = CARTESIAN_POINT ( 'NONE',  ( 0.0000000000000000000, 0.0000000000000000000, 0.0000000000000000000 ) ) ;
#242 = LOCAL_TIME ( 9, 27, 17.00000000000000000, #312 ) ;
#243 = CARTESIAN_POINT ( 'NONE',  ( 12.50000000000000000, 17.67766952966358900, -1.112641391681767300E-015 ) ) ;
#244 =( NAMED_UNIT ( * ) PLANE_ANGLE_UNIT ( ) SI_UNIT ( $, .RADIAN. ) );
#245 = ADVANCED_FACE ( 'NONE', ( #204 ), #150, .F. ) ;
#246 = APPROVAL_PERSON_ORGANIZATION ( #142, #314, #161 ) ;
#247 = CARTESIAN_POINT ( 'NONE',  ( 12.50000000000000000, -2.164890140588744600E-015, -17.67766952966377800 ) ) ;
#248 = APPLICATION_CONTEXT ( 'configuration controlled 3d designs of mechanical parts and assemblies' ) ;
#249 = APPROVAL_STATUS ( 'not_yet_approved' ) ;
#250 = LINE ( 'NONE', #247, #239 ) ;
#251 = PERSON_AND_ORGANIZATION_ROLE ( 'creator' ) ;
#252 = PERSON_AND_ORGANIZATION ( #301, #336 ) ;
#253 = CC_DESIGN_APPROVAL ( #231, ( #206 ) ) ;
#254 = CALENDAR_DATE ( 2017, 18, 7 ) ;
#255 = VECTOR ( 'NONE', #340, 1000.000000000000000 ) ;
#256 = CC_DESIGN_PERSON_AND_ORGANIZATION_ASSIGNMENT ( #183, #83, ( #179 ) ) ;
#257 = LINE ( 'NONE', #155, #255 ) ;
#258 = CARTESIAN_POINT ( 'NONE',  ( -12.50000000000000000, -2.164890140588744600E-015, -17.67766952966377800 ) ) ;
#259 = PERSON_AND_ORGANIZATION ( #301, #336 ) ;
#260 = APPROVAL_ROLE ( '' ) ;
#261 = CC_DESIGN_APPROVAL ( #314, ( #304 ) ) ;
#262 = APPROVAL_DATE_TIME ( #58, #231 ) ;
#263 = CC_DESIGN_PERSON_AND_ORGANIZATION_ASSIGNMENT ( #67, #297, ( #206 ) ) ;
#264 = COORDINATED_UNIVERSAL_TIME_OFFSET ( 5, 0, .BEHIND. ) ;
#265 = DIRECTION ( 'NONE',  ( 0.0000000000000000000, -0.7071067811865512400, 0.7071067811865439100 ) ) ;
#266 = DIRECTION ( 'NONE',  ( 1.000000000000000000, 0.0000000000000000000, 0.0000000000000000000 ) ) ;
#267 = CARTESIAN_POINT ( 'NONE',  ( -12.50000000000000000, 17.67766952966358900, -1.112641391681767300E-015 ) ) ;
#268 = SECURITY_CLASSIFICATION ( '', '', #273 ) ;
#269 = APPROVAL_STATUS ( 'not_yet_approved' ) ;
#270 = APPLICATION_PROTOCOL_DEFINITION ( 'international standard', 'config_control_design', 1994, #321 ) ;
#271 = AXIS2_PLACEMENT_3D ( 'NONE', #136, #114, #176 ) ;
#272 = PRODUCT ( '25mm BEAMSPLITTER CUBE TS_35966', '25mm BEAMSPLITTER CUBE TS_35966', '', ( #215 ) ) ;
#273 = SECURITY_CLASSIFICATION_LEVEL ( 'unclassified' ) ;
#274 = LOCAL_TIME ( 9, 27, 17.00000000000000000, #337 ) ;
#275 = CC_DESIGN_PERSON_AND_ORGANIZATION_ASSIGNMENT ( #252, #348, ( #304 ) ) ;
#276 = DIRECTION ( 'NONE',  ( -1.000000000000000000, -0.0000000000000000000, -0.0000000000000000000 ) ) ;
#277 = CONTEXT_DEPENDENT_SHAPE_REPRESENTATION ( #166, #218 ) ;
#278 = PRODUCT_DEFINITION_SHAPE ( 'NONE', 'NONE',  #206 ) ;
#279 = CARTESIAN_POINT ( 'NONE',  ( 12.50000000000000000, 0.0000000000000000000, 17.67766952966377800 ) ) ;
#280 = PERSON_AND_ORGANIZATION ( #301, #336 ) ;
#281 = CC_DESIGN_DATE_AND_TIME_ASSIGNMENT ( #71, #131, ( #206 ) ) ;
#282 = CALENDAR_DATE ( 2017, 18, 7 ) ;
#283 = PERSON_AND_ORGANIZATION_ROLE ( 'classification_officer' ) ;
#284 = DATE_AND_TIME ( #356, #75 ) ;
#285 = CC_DESIGN_PERSON_AND_ORGANIZATION_ASSIGNMENT ( #115, #113, ( #268 ) ) ;
#286 = APPROVAL_PERSON_ORGANIZATION ( #157, #172, #260 ) ;
#287 = PERSON_AND_ORGANIZATION ( #301, #336 ) ;
#288 = CARTESIAN_POINT ( 'NONE',  ( -12.50000000000000000, 17.67766952966358900, -1.112641391681767300E-015 ) ) ;
#289 = CC_DESIGN_PERSON_AND_ORGANIZATION_ASSIGNMENT ( #174, #189, ( #304 ) ) ;
#290 = DIRECTION ( 'NONE',  ( 0.0000000000000000000, 6.123233995736767300E-017, 1.000000000000000000 ) ) ;
#291 = DIRECTION ( 'NONE',  ( 0.0000000000000000000, 0.0000000000000000000, 1.000000000000000000 ) ) ;
#292 = CALENDAR_DATE ( 2017, 18, 7 ) ;
#293 = CARTESIAN_POINT ( 'NONE',  ( 12.50000000000000000, -2.164890140588744600E-015, -17.67766952966377800 ) ) ;
#294 = DIRECTION ( 'NONE',  ( 1.000000000000000000, 0.0000000000000000000, 0.0000000000000000000 ) ) ;
#295 = DIRECTION ( 'NONE',  ( -1.000000000000000000, 0.0000000000000000000, 0.0000000000000000000 ) ) ;
#296 = DESIGN_CONTEXT ( 'detailed design', #133, 'design' ) ;
#297 = PERSON_AND_ORGANIZATION_ROLE ( 'creator' ) ;
#298 = CALENDAR_DATE ( 2017, 18, 7 ) ;
#299 = PERSON_AND_ORGANIZATION_ROLE ( 'design_owner' ) ;
#300 = PERSON_AND_ORGANIZATION ( #301, #336 ) ;
#301 = PERSON ( 'UNSPECIFIED', 'UNSPECIFIED', 'UNSPECIFIED', ('UNSPECIFIED'), ('UNSPECIFIED'), ('UNSPECIFIED') ) ;
#302 = DATE_TIME_ROLE ( 'classification_date' ) ;
#303 = COORDINATED_UNIVERSAL_TIME_OFFSET ( 5, 0, .BEHIND. ) ;
#304 = PRODUCT_DEFINITION_FORMATION_WITH_SPECIFIED_SOURCE ( 'ANY', '', #272, .NOT_KNOWN. ) ;
#305 = ITEM_DEFINED_TRANSFORMATION ( 'NONE', 'NONE', #60,  #55 ) ;
#306 = CC_DESIGN_DATE_AND_TIME_ASSIGNMENT ( #177, #302, ( #268 ) ) ;
#307 = LOCAL_TIME ( 9, 27, 17.00000000000000000, #334 ) ;
#308 = AXIS2_PLACEMENT_3D ( 'NONE', #338, #182, #8 ) ;
#309 = CLOSED_SHELL ( 'NONE', ( #322, #212, #343, #245, #106 ) ) ;
#310 = LOCAL_TIME ( 9, 27, 17.00000000000000000, #20 ) ;
#311 = SECURITY_CLASSIFICATION ( '', '', #17 ) ;
#312 = COORDINATED_UNIVERSAL_TIME_OFFSET ( 5, 0, .BEHIND. ) ;
#313 = APPROVAL_DATE_TIME ( #31, #314 ) ;
#314 = APPROVAL ( #324, 'UNSPECIFIED' ) ;
#315 = PLANE ( 'NONE',  #308 ) ;
#316 = LOCAL_TIME ( 9, 27, 17.00000000000000000, #34 ) ;
#317 = CARTESIAN_POINT ( 'NONE',  ( 12.50000000000000000, -2.164890140588744600E-015, -17.67766952966377800 ) ) ;
#318 = CARTESIAN_POINT ( 'NONE',  ( 0.0000000000000000000, 0.0000000000000000000, 0.0000000000000000000 ) ) ;
#319 = COORDINATED_UNIVERSAL_TIME_OFFSET ( 5, 0, .BEHIND. ) ;
#320 = CARTESIAN_POINT ( 'NONE',  ( -12.50000000000000000, 0.0000000000000000000, 17.67766952966377800 ) ) ;
#321 = APPLICATION_CONTEXT ( 'configuration controlled 3d designs of mechanical parts and assemblies' ) ;
#322 = ADVANCED_FACE ( 'NONE', ( #235 ), #315, .F. ) ;
#323 = APPROVAL ( #134, 'UNSPECIFIED' ) ;
#324 = APPROVAL_STATUS ( 'not_yet_approved' ) ;
#325 = APPLICATION_PROTOCOL_DEFINITION ( 'international standard', 'config_control_design', 1994, #133 ) ;
#326 =( GEOMETRIC_REPRESENTATION_CONTEXT ( 3 ) GLOBAL_UNCERTAINTY_ASSIGNED_CONTEXT ( ( #97 ) ) GLOBAL_UNIT_ASSIGNED_CONTEXT ( ( #185, #9, #208 ) ) REPRESENTATION_CONTEXT ( 'NONE', 'WORKASPACE' ) );
#327 = PRODUCT ( '25x25 Right Angle Prism Master', '25x25 Right Angle Prism Master', '', ( #110 ) ) ;
#328 = APPROVAL_ROLE ( '' ) ;
#329 = APPROVAL_DATE_TIME ( #40, #198 ) ;
#330 = SHAPE_REPRESENTATION_RELATIONSHIP ( 'NONE' , 'NONE' ,  #27, #164 ) ;
#331 = CC_DESIGN_PERSON_AND_ORGANIZATION_ASSIGNMENT ( #98, #216, ( #311 ) ) ;
#332 = APPROVAL_PERSON_ORGANIZATION ( #52, #198, #51 ) ;
#333 = CC_DESIGN_APPROVAL ( #323, ( #268 ) ) ;
#334 = COORDINATED_UNIVERSAL_TIME_OFFSET ( 5, 0, .BEHIND. ) ;
#335 = AXIS2_PLACEMENT_3D ( 'NONE', #70, #265, #100 ) ;
#336 = ORGANIZATION ( 'UNSPECIFIED', 'UNSPECIFIED', '' ) ;
#337 = COORDINATED_UNIVERSAL_TIME_OFFSET ( 5, 0, .BEHIND. ) ;
#338 = CARTESIAN_POINT ( 'NONE',  ( 12.50000000000000000, 17.67766952966358900, -1.112641391681767300E-015 ) ) ;
#339 = DIRECTION ( 'NONE',  ( 0.0000000000000000000, -6.123233995736767300E-017, -1.000000000000000000 ) ) ;
#340 = DIRECTION ( 'NONE',  ( -1.000000000000000000, -0.0000000000000000000, -0.0000000000000000000 ) ) ;
#341 = CC_DESIGN_DATE_AND_TIME_ASSIGNMENT ( #167, #50, ( #311 ) ) ;
#342 = DIRECTION ( 'NONE',  ( 0.0000000000000000000, 0.0000000000000000000, -1.000000000000000000 ) ) ;
#343 = ADVANCED_FACE ( 'NONE', ( #225 ), #39, .F. ) ;
#344 = APPROVAL_PERSON_ORGANIZATION ( #64, #57, #21 ) ;
#345 = EDGE_CURVE ( 'NONE', #12, #111, #257, .T. ) ;
#346 = CALENDAR_DATE ( 2017, 18, 7 ) ;
#347 = LOCAL_TIME ( 9, 27, 17.00000000000000000, #319 ) ;
#348 = PERSON_AND_ORGANIZATION_ROLE ( 'creator' ) ;
#349 = UNCERTAINTY_MEASURE_WITH_UNIT (LENGTH_MEASURE( 1.000000000000000100E-005 ), #44, 'distance_accuracy_value', 'NONE');
#350 = APPROVAL_ROLE ( '' ) ;
#351 = PERSON ( 'NAUO-PER1', 'UNSPECIFIED', 'UNSPECIFIED', ('UNSPECIFIED'), ('UNSPECIFIED'), ('UNSPECIFIED') ) ;
#352 = SECURITY_CLASSIFICATION_LEVEL ( 'unclassified' ) ;
#353 = DIRECTION ( 'NONE',  ( 0.0000000000000000000, 0.7071067811865439100, 0.7071067811865512400 ) ) ;
#354 = LOCAL_TIME ( 9, 27, 17.00000000000000000, #68 ) ;
#355 = EDGE_LOOP ( 'NONE', ( #25, #88, #147 ) ) ;
#356 = CALENDAR_DATE ( 2017, 18, 7 ) ;
#357 = LOCAL_TIME ( 9, 27, 17.00000000000000000, #232 ) ;
#358 = CC_DESIGN_SECURITY_CLASSIFICATION ( #268, ( #179 ) ) ;
#359 = APPROVAL_DATE_TIME ( #85, #1 ) ;
#360 = NEXT_ASSEMBLY_USAGE_OCCURRENCE ( 'NAUO1', ' ', ' ', #206, #86, $ ) ;
#361 = NEXT_ASSEMBLY_USAGE_OCCURRENCE ( 'NAUO2', ' ', ' ', #206, #86, $ ) ;
ENDSEC;
END-ISO-10303-21;
