ISO-10303-21;
HEADER;
FILE_DESCRIPTION (( 'STEP AP203' ),
    '1' );
FILE_NAME ('20134-E0W.STEP',
    '2019-07-16T11:11:57',
    ( '' ),
    ( '' ),
    'SwSTEP 2.0',
    'SolidWorks 2018',
    '' );
FILE_SCHEMA (( 'CONFIG_CONTROL_DESIGN' ));
ENDSEC;

DATA;
#1 = CARTESIAN_POINT ( 'NONE',  ( 0.0000000000000000000, 1.270000000000000906, -0.01506750296006404040 ) ) ;
#2 = CIRCLE ( 'NONE', #193, 4.338000000000001855 ) ;
#3 = ORIENTED_EDGE ( 'NONE', *, *, #270, .F. ) ;
#4 = CC_DESIGN_DATE_AND_TIME_ASSIGNMENT ( #25, #78, ( #215 ) ) ;
#5 = ADVANCED_FACE ( 'NONE', ( #93 ), #64, .T. ) ;
#6 = ADVANCED_FACE ( 'NONE', ( #293 ), #165, .T. ) ;
#7 = LOCAL_TIME ( 7, 11, 57.00000000000000000, #15 ) ;
#8 =( NAMED_UNIT ( * ) SI_UNIT ( $, .STERADIAN. ) SOLID_ANGLE_UNIT ( ) );
#9 = APPLICATION_PROTOCOL_DEFINITION ( 'international standard', 'config_control_design', 1994, #143 ) ;
#10 = VECTOR ( 'NONE', #251, 100.0000000000000142 ) ;
#11 = CARTESIAN_POINT ( 'NONE',  ( 0.0000000000000000000, 0.0000000000000000000, 0.0000000000000000000 ) ) ;
#12 = LINE ( 'NONE', #132, #10 ) ;
#13 = EDGE_CURVE ( 'NONE', #27, #56, #131, .T. ) ;
#14 = CARTESIAN_POINT ( 'NONE',  ( 0.0000000000000000000, 2.794169100559943594E-17, -0.01506750296006442724 ) ) ;
#15 = COORDINATED_UNIVERSAL_TIME_OFFSET ( 5, 0, .BEHIND. ) ;
#16 = VERTEX_POINT ( 'NONE', #89 ) ;
#17 = CARTESIAN_POINT ( 'NONE',  ( 1.531937758246961850E-16, -1.250922110206434290, 0.01072578225821596738 ) ) ;
#18 = EDGE_CURVE ( 'NONE', #116, #83, #180, .T. ) ;
#19 = DIRECTION ( 'NONE',  ( 0.0000000000000000000, -3.061515884555941173E-16, 1.000000000000000000 ) ) ;
#20 = ORIENTED_EDGE ( 'NONE', *, *, #274, .T. ) ;
#21 = DIRECTION ( 'NONE',  ( 0.0000000000000000000, 1.000000000000000000, 3.073328992872293902E-16 ) ) ;
#22 = CARTESIAN_POINT ( 'NONE',  ( 0.0000000000000000000, 1.270000000000000906, -0.1949999999999995903 ) ) ;
#23 = PERSON_AND_ORGANIZATION ( #271, #261 ) ;
#24 = EDGE_CURVE ( 'NONE', #212, #195, #41, .T. ) ;
#25 = DATE_AND_TIME ( #130, #119 ) ;
#26 = EDGE_LOOP ( 'NONE', ( #42, #20, #65, #223 ) ) ;
#27 = VERTEX_POINT ( 'NONE', #17 ) ;
#28 = DIRECTION ( 'NONE',  ( 0.0000000000000000000, 1.000000000000000000, 3.066030373813235562E-16 ) ) ;
#29 = EDGE_CURVE ( 'NONE', #27, #207, #12, .T. ) ;
#30 = SECURITY_CLASSIFICATION_LEVEL ( 'unclassified' ) ;
#31 = DIRECTION ( 'NONE',  ( -0.0000000000000000000, 3.061515884555943146E-16, -1.000000000000000000 ) ) ;
#32 = LINE ( 'NONE', #22, #148 ) ;
#33 = EDGE_CURVE ( 'NONE', #212, #83, #113, .T. ) ;
#34 = APPROVAL ( #189, 'UNSPECIFIED' ) ;
#35 = CYLINDRICAL_SURFACE ( 'NONE', #249, 1.270000000000000906 ) ;
#36 = CARTESIAN_POINT ( 'NONE',  ( 0.0000000000000000000, 4.948634275796215977E-16, -4.143000000000007788 ) ) ;
#37 = DIRECTION ( 'NONE',  ( 0.0000000000000000000, -3.061515884555961388E-16, 1.000000000000000000 ) ) ;
#38 = COORDINATED_UNIVERSAL_TIME_OFFSET ( 5, 0, .BEHIND. ) ;
#39 =( GEOMETRIC_REPRESENTATION_CONTEXT ( 3 ) GLOBAL_UNCERTAINTY_ASSIGNED_CONTEXT ( ( #133 ) ) GLOBAL_UNIT_ASSIGNED_CONTEXT ( ( #192, #53, #8 ) ) REPRESENTATION_CONTEXT ( 'NONE', 'WORKASPACE' ) );
#40 = EDGE_CURVE ( 'NONE', #195, #212, #190, .T. ) ;
#41 = CIRCLE ( 'NONE', #121, 1.250000000000001110 ) ;
#42 = ORIENTED_EDGE ( 'NONE', *, *, #282, .F. ) ;
#43 = ORIENTED_EDGE ( 'NONE', *, *, #29, .F. ) ;
#44 = CARTESIAN_POINT ( 'NONE',  ( 0.0000000000000000000, 4.948634275796215977E-16, -4.143000000000007788 ) ) ;
#45 = AXIS2_PLACEMENT_3D ( 'NONE', #69, #262, #94 ) ;
#46 = ADVANCED_FACE ( 'NONE', ( #236 ), #173, .T. ) ;
#47 = DIRECTION ( 'NONE',  ( 1.000000000000000000, 1.224646799147353207E-16, 3.749275628560213616E-32 ) ) ;
#48 = EDGE_LOOP ( 'NONE', ( #71, #149, #181 ) ) ;
#49 = SECURITY_CLASSIFICATION ( '', '', #30 ) ;
#50 = CARTESIAN_POINT ( 'NONE',  ( 0.0000000000000000000, 2.794169100559939897E-17, -0.01506750296006442724 ) ) ;
#51 = DIRECTION ( 'NONE',  ( 0.0000000000000000000, 0.0000000000000000000, 1.000000000000000000 ) ) ;
#52 = APPROVAL_PERSON_ORGANIZATION ( #200, #171, #79 ) ;
#53 =( NAMED_UNIT ( * ) PLANE_ANGLE_UNIT ( ) SI_UNIT ( $, .RADIAN. ) );
#54 = AXIS2_PLACEMENT_3D ( 'NONE', #91, #135, #152 ) ;
#55 = CIRCLE ( 'NONE', #101, 1.270000000000000906 ) ;
#56 = VERTEX_POINT ( 'NONE', #128 ) ;
#57 = PERSON_AND_ORGANIZATION_ROLE ( 'design_owner' ) ;
#58 = PRODUCT_DEFINITION_SHAPE ( 'NONE', 'NONE',  #215 ) ;
#59 = DATE_AND_TIME ( #232, #285 ) ;
#60 = CLOSED_SHELL ( 'NONE', ( #5, #102, #237, #46, #240, #6, #122, #142, #213 ) ) ;
#61 = EDGE_CURVE ( 'NONE', #83, #116, #55, .T. ) ;
#62 = CIRCLE ( 'NONE', #45, 1.270000000000000906 ) ;
#63 = CARTESIAN_POINT ( 'NONE',  ( 0.0000000000000000000, -7.768063186676973204E-16, 0.01072578225821615994 ) ) ;
#64 = CONICAL_SURFACE ( 'NONE', #177, 1.270000000000000906, 0.6368412875256826977 ) ;
#65 = ORIENTED_EDGE ( 'NONE', *, *, #112, .T. ) ;
#66 = DIRECTION ( 'NONE',  ( -0.0000000000000000000, 3.061515884555943146E-16, -1.000000000000000000 ) ) ;
#67 = AXIS2_PLACEMENT_3D ( 'NONE', #276, #295, #260 ) ;
#68 = DIRECTION ( 'NONE',  ( 0.0000000000000000000, -1.000000000000000000, -3.122502256758249812E-16 ) ) ;
#69 = CARTESIAN_POINT ( 'NONE',  ( 0.0000000000000000000, 2.794169100559939897E-17, -0.01506750296006442724 ) ) ;
#70 = CONICAL_SURFACE ( 'NONE', #88, 1.250000000000001110, 0.7853981633974613796 ) ;
#71 = ORIENTED_EDGE ( 'NONE', *, *, #217, .F. ) ;
#72 = DIRECTION ( 'NONE',  ( 0.0000000000000000000, -3.061515884555961388E-16, 1.000000000000000000 ) ) ;
#73 = AXIS2_PLACEMENT_3D ( 'NONE', #160, #159, #68 ) ;
#74 = DIRECTION ( 'NONE',  ( 0.0000000000000000000, 1.000000000000000000, 3.061515884555943146E-16 ) ) ;
#75 = ORIENTED_EDGE ( 'NONE', *, *, #139, .F. ) ;
#76 = APPROVAL_STATUS ( 'not_yet_approved' ) ;
#77 = APPROVAL_PERSON_ORGANIZATION ( #199, #182, #170 ) ;
#78 = DATE_TIME_ROLE ( 'creation_date' ) ;
#79 = APPROVAL_ROLE ( '' ) ;
#80 = CONICAL_SURFACE ( 'NONE', #106, 1.270000000000000906, 0.6368412875256826977 ) ;
#81 = AXIS2_PLACEMENT_3D ( 'NONE', #87, #255, #277 ) ;
#82 = DESIGN_CONTEXT ( 'detailed design', #143, 'design' ) ;
#83 = VERTEX_POINT ( 'NONE', #156 ) ;
#84 = ORIENTED_EDGE ( 'NONE', *, *, #217, .T. ) ;
#85 = PERSON_AND_ORGANIZATION ( #271, #261 ) ;
#86 = DIRECTION ( 'NONE',  ( 1.000000000000000000, 0.0000000000000000000, -0.0000000000000000000 ) ) ;
#87 = CARTESIAN_POINT ( 'NONE',  ( 0.0000000000000000000, 7.690527902004556535E-17, -0.1750000000000008216 ) ) ;
#88 = AXIS2_PLACEMENT_3D ( 'NONE', #118, #96, #301 ) ;
#89 = CARTESIAN_POINT ( 'NONE',  ( 0.0000000000000000000, -5.675962724056860325E-16, 0.1949999999999937894 ) ) ;
#90 = CIRCLE ( 'NONE', #127, 1.270000000000000906 ) ;
#91 = CARTESIAN_POINT ( 'NONE',  ( 0.0000000000000000000, 8.302831078915724457E-17, -0.1950000000000001732 ) ) ;
#92 = ORIENTED_EDGE ( 'NONE', *, *, #33, .F. ) ;
#93 = FACE_OUTER_BOUND ( 'NONE', #287, .T. ) ;
#94 = DIRECTION ( 'NONE',  ( 0.0000000000000000000, -1.000000000000000000, -3.051986430421791769E-16 ) ) ;
#95 = VECTOR ( 'NONE', #31, 100.0000000000000000 ) ;
#96 = DIRECTION ( 'NONE',  ( 0.0000000000000000000, -3.061515884555941173E-16, 1.000000000000000000 ) ) ;
#97 = FACE_OUTER_BOUND ( 'NONE', #109, .T. ) ;
#98 = ORIENTED_EDGE ( 'NONE', *, *, #13, .F. ) ;
#99 = ORIENTED_EDGE ( 'NONE', *, *, #24, .T. ) ;
#100 = CARTESIAN_POINT ( 'NONE',  ( 0.0000000000000000000, -7.768063186676973204E-16, 0.01072578225821615994 ) ) ;
#101 = AXIS2_PLACEMENT_3D ( 'NONE', #174, #19, #21 ) ;
#102 = ADVANCED_FACE ( 'NONE', ( #286 ), #278, .T. ) ;
#103 = FACE_OUTER_BOUND ( 'NONE', #289, .T. ) ;
#104 = CC_DESIGN_PERSON_AND_ORGANIZATION_ASSIGNMENT ( #85, #105, ( #123 ) ) ;
#105 = PERSON_AND_ORGANIZATION_ROLE ( 'design_supplier' ) ;
#106 = AXIS2_PLACEMENT_3D ( 'NONE', #259, #268, #264 ) ;
#107 = COORDINATED_UNIVERSAL_TIME_OFFSET ( 5, 0, .BEHIND. ) ;
#108 = ORIENTED_EDGE ( 'NONE', *, *, #151, .F. ) ;
#109 = EDGE_LOOP ( 'NONE', ( #196, #169, #204, #263 ) ) ;
#110 = APPLICATION_PROTOCOL_DEFINITION ( 'international standard', 'config_control_design', 1994, #243 ) ;
#111 = CC_DESIGN_PERSON_AND_ORGANIZATION_ASSIGNMENT ( #235, #269, ( #123 ) ) ;
#112 = EDGE_CURVE ( 'NONE', #175, #116, #32, .T. ) ;
#113 = LINE ( 'NONE', #114, #247 ) ;
#114 = CARTESIAN_POINT ( 'NONE',  ( 0.0000000000000000000, -1.250000000000001110, -0.1950000000000005895 ) ) ;
#115 = FACE_OUTER_BOUND ( 'NONE', #26, .T. ) ;
#116 = VERTEX_POINT ( 'NONE', #234 ) ;
#117 = ORIENTED_EDGE ( 'NONE', *, *, #33, .T. ) ;
#118 = CARTESIAN_POINT ( 'NONE',  ( 0.0000000000000000000, 8.302831078915724457E-17, -0.1950000000000001732 ) ) ;
#119 = LOCAL_TIME ( 7, 11, 57.00000000000000000, #275 ) ;
#120 = DIRECTION ( 'NONE',  ( 0.0000000000000000000, 0.0000000000000000000, 1.000000000000000000 ) ) ;
#121 = AXIS2_PLACEMENT_3D ( 'NONE', #201, #66, #253 ) ;
#122 = ADVANCED_FACE ( 'NONE', ( #115 ), #252, .T. ) ;
#123 = PRODUCT_DEFINITION_FORMATION_WITH_SPECIFIED_SOURCE ( 'ANY', '', #191, .NOT_KNOWN. ) ;
#124 = PLANE ( 'NONE',  #154 ) ;
#125 = ORIENTED_EDGE ( 'NONE', *, *, #166, .T. ) ;
#126 = CC_DESIGN_PERSON_AND_ORGANIZATION_ASSIGNMENT ( #290, #57, ( #191 ) ) ;
#127 = AXIS2_PLACEMENT_3D ( 'NONE', #50, #145, #187 ) ;
#128 = CARTESIAN_POINT ( 'NONE',  ( 0.0000000000000000000, 1.250922110206432958, 0.01072578225821669944 ) ) ;
#129 = PRODUCT_RELATED_PRODUCT_CATEGORY ( 'detail', '', ( #191 ) ) ;
#130 = CALENDAR_DATE ( 2019, 16, 7 ) ;
#131 = CIRCLE ( 'NONE', #197, 1.250922110206433180 ) ;
#132 = CARTESIAN_POINT ( 'NONE',  ( 1.555301434917139813E-16, -1.270000000000000906, -0.01506750296006481409 ) ) ;
#133 = UNCERTAINTY_MEASURE_WITH_UNIT (LENGTH_MEASURE( 1.000000000000000082E-05 ), #192, 'distance_accuracy_value', 'NONE');
#134 = DIRECTION ( 'NONE',  ( 0.0000000000000000000, -0.7071067811865571207, 0.7071067811865380248 ) ) ;
#135 = DIRECTION ( 'NONE',  ( -0.0000000000000000000, 3.061515884555943146E-16, -1.000000000000000000 ) ) ;
#136 = EDGE_LOOP ( 'NONE', ( #155, #291, #266, #92 ) ) ;
#137 = ORIENTED_EDGE ( 'NONE', *, *, #40, .T. ) ;
#138 = DIRECTION ( 'NONE',  ( -0.0000000000000000000, 3.061515884555943146E-16, -1.000000000000000000 ) ) ;
#139 = EDGE_CURVE ( 'NONE', #195, #116, #222, .T. ) ;
#140 = CIRCLE ( 'NONE', #245, 4.338000000000001855 ) ;
#141 = CC_DESIGN_PERSON_AND_ORGANIZATION_ASSIGNMENT ( #23, #167, ( #49 ) ) ;
#142 = ADVANCED_FACE ( 'NONE', ( #257 ), #70, .T. ) ;
#143 = APPLICATION_CONTEXT ( 'configuration controlled 3d designs of mechanical parts and assemblies' ) ;
#144 = APPROVAL_DATE_TIME ( #162, #171 ) ;
#145 = DIRECTION ( 'NONE',  ( -0.0000000000000000000, 3.061515884555961388E-16, -1.000000000000000000 ) ) ;
#146 = APPROVAL_ROLE ( '' ) ;
#147 = AXIS2_PLACEMENT_3D ( 'NONE', #233, #231, #178 ) ;
#148 = VECTOR ( 'NONE', #138, 100.0000000000000000 ) ;
#149 = ORIENTED_EDGE ( 'NONE', *, *, #270, .T. ) ;
#150 = MANIFOLD_SOLID_BREP ( '20134-001-1-solid1', #60 ) ;
#151 = EDGE_CURVE ( 'NONE', #175, #207, #62, .T. ) ;
#152 = DIRECTION ( 'NONE',  ( 0.0000000000000000000, 1.000000000000000000, 3.122502256758249812E-16 ) ) ;
#153 = COORDINATED_UNIVERSAL_TIME_OFFSET ( 5, 0, .BEHIND. ) ;
#154 = AXIS2_PLACEMENT_3D ( 'NONE', #288, #210, #74 ) ;
#155 = ORIENTED_EDGE ( 'NONE', *, *, #40, .F. ) ;
#156 = CARTESIAN_POINT ( 'NONE',  ( 1.555301434917139813E-16, -1.270000000000000906, -0.1750000000000012101 ) ) ;
#157 = LOCAL_TIME ( 7, 11, 57.00000000000000000, #107 ) ;
#158 = CC_DESIGN_DATE_AND_TIME_ASSIGNMENT ( #59, #272, ( #49 ) ) ;
#159 = DIRECTION ( 'NONE',  ( 0.0000000000000000000, -3.061515884555941173E-16, 1.000000000000000000 ) ) ;
#160 = CARTESIAN_POINT ( 'NONE',  ( 0.0000000000000000000, 8.302831078915724457E-17, -0.1950000000000001732 ) ) ;
#161 = DIRECTION ( 'NONE',  ( -1.000000000000000000, 0.0000000000000000000, 0.0000000000000000000 ) ) ;
#162 = DATE_AND_TIME ( #226, #211 ) ;
#163 = ORIENTED_EDGE ( 'NONE', *, *, #18, .F. ) ;
#164 = CARTESIAN_POINT ( 'NONE',  ( 0.0000000000000000000, 1.270000000000000906, -0.01506750296006404040 ) ) ;
#165 = SPHERICAL_SURFACE ( 'NONE', #294, 4.338000000000001855 ) ;
#166 = EDGE_CURVE ( 'NONE', #56, #175, #265, .T. ) ;
#167 = PERSON_AND_ORGANIZATION_ROLE ( 'classification_officer' ) ;
#168 = VECTOR ( 'NONE', #205, 100.0000000000000000 ) ;
#169 = ORIENTED_EDGE ( 'NONE', *, *, #282, .T. ) ;
#170 = APPROVAL_ROLE ( '' ) ;
#171 = APPROVAL ( #242, 'UNSPECIFIED' ) ;
#172 = DIRECTION ( 'NONE',  ( 0.0000000000000000000, 1.000000000000000000, 3.199121209731316820E-16 ) ) ;
#173 = SPHERICAL_SURFACE ( 'NONE', #67, 4.338000000000001855 ) ;
#174 = CARTESIAN_POINT ( 'NONE',  ( 0.0000000000000000000, 7.690527902004556535E-17, -0.1750000000000008216 ) ) ;
#175 = VERTEX_POINT ( 'NONE', #164 ) ;
#176 = CARTESIAN_POINT ( 'NONE',  ( 1.530808498934192557E-16, 1.250000000000001110, -0.1949999999999997846 ) ) ;
#177 = AXIS2_PLACEMENT_3D ( 'NONE', #14, #227, #198 ) ;
#178 = DIRECTION ( 'NONE',  ( 0.0000000000000000000, 1.000000000000000000, 3.073328992872293902E-16 ) ) ;
#179 = FACE_OUTER_BOUND ( 'NONE', #239, .T. ) ;
#180 = CIRCLE ( 'NONE', #81, 1.270000000000000906 ) ;
#181 = ORIENTED_EDGE ( 'NONE', *, *, #258, .T. ) ;
#182 = APPROVAL ( #76, 'UNSPECIFIED' ) ;
#183 = DIRECTION ( 'NONE',  ( -1.224646799147352961E-16, 1.000000000000000000, 0.0000000000000000000 ) ) ;
#184 = CARTESIAN_POINT ( 'NONE',  ( 0.0000000000000000000, 4.948634275796215977E-16, -4.143000000000007788 ) ) ;
#185 = PERSON_AND_ORGANIZATION ( #271, #261 ) ;
#186 = DIRECTION ( 'NONE',  ( -0.0000000000000000000, 3.061515884555943146E-16, -1.000000000000000000 ) ) ;
#187 = DIRECTION ( 'NONE',  ( 0.0000000000000000000, -1.000000000000000000, -3.051986430421791769E-16 ) ) ;
#188 = APPROVAL_DATE_TIME ( #281, #34 ) ;
#189 = APPROVAL_STATUS ( 'not_yet_approved' ) ;
#190 = CIRCLE ( 'NONE', #54, 1.250000000000001110 ) ;
#191 = PRODUCT ( '20134-E0W', '20134-E0W', '', ( #248 ) ) ;
#192 =( LENGTH_UNIT ( ) NAMED_UNIT ( * ) SI_UNIT ( .CENTI., .METRE. ) );
#193 = AXIS2_PLACEMENT_3D ( 'NONE', #184, #47, #183 ) ;
#194 = CIRCLE ( 'NONE', #230, 1.250922110206433180 ) ;
#195 = VERTEX_POINT ( 'NONE', #299 ) ;
#196 = ORIENTED_EDGE ( 'NONE', *, *, #151, .T. ) ;
#197 = AXIS2_PLACEMENT_3D ( 'NONE', #63, #37, #225 ) ;
#198 = DIRECTION ( 'NONE',  ( 0.0000000000000000000, 1.000000000000000000, 3.051986430421791769E-16 ) ) ;
#199 = PERSON_AND_ORGANIZATION ( #271, #261 ) ;
#200 = PERSON_AND_ORGANIZATION ( #271, #261 ) ;
#201 = CARTESIAN_POINT ( 'NONE',  ( 0.0000000000000000000, 8.302831078915724457E-17, -0.1950000000000001732 ) ) ;
#202 = CC_DESIGN_SECURITY_CLASSIFICATION ( #49, ( #123 ) ) ;
#203 = VECTOR ( 'NONE', #280, 100.0000000000000000 ) ;
#204 = ORIENTED_EDGE ( 'NONE', *, *, #61, .T. ) ;
#205 = DIRECTION ( 'NONE',  ( 8.659560562355046257E-17, 0.7071067811865564545, 0.7071067811865384689 ) ) ;
#206 = APPROVAL_PERSON_ORGANIZATION ( #185, #34, #146 ) ;
#207 = VERTEX_POINT ( 'NONE', #283 ) ;
#208 = CC_DESIGN_APPROVAL ( #182, ( #49 ) ) ;
#209 = CARTESIAN_POINT ( 'NONE',  ( 0.0000000000000000000, -1.250000000000001110, -0.1950000000000005895 ) ) ;
#210 = DIRECTION ( 'NONE',  ( -0.0000000000000000000, 3.061515884555943146E-16, -1.000000000000000000 ) ) ;
#211 = LOCAL_TIME ( 7, 11, 57.00000000000000000, #153 ) ;
#212 = VERTEX_POINT ( 'NONE', #209 ) ;
#213 = ADVANCED_FACE ( 'NONE', ( #103 ), #80, .T. ) ;
#214 = DIRECTION ( 'NONE',  ( 0.0000000000000000000, 1.000000000000000000, 3.073328992872293902E-16 ) ) ;
#215 = PRODUCT_DEFINITION ( 'UNKNOWN', '', #123, #82 ) ;
#216 = APPROVAL_DATE_TIME ( #238, #182 ) ;
#217 = EDGE_CURVE ( 'NONE', #16, #27, #2, .T. ) ;
#218 = PERSON_AND_ORGANIZATION ( #271, #261 ) ;
#219 = DIRECTION ( 'NONE',  ( 1.000000000000000000, 0.0000000000000000000, 0.0000000000000000000 ) ) ;
#220 = PERSON_AND_ORGANIZATION_ROLE ( 'creator' ) ;
#221 = CARTESIAN_POINT ( 'NONE',  ( 1.555301434917139813E-16, -1.270000000000000906, -0.1950000000000003952 ) ) ;
#222 = LINE ( 'NONE', #176, #168 ) ;
#223 = ORIENTED_EDGE ( 'NONE', *, *, #18, .T. ) ;
#224 = AXIS2_PLACEMENT_3D ( 'NONE', #11, #51, #219 ) ;
#225 = DIRECTION ( 'NONE',  ( 0.0000000000000000000, 1.000000000000000000, 3.066030373813235562E-16 ) ) ;
#226 = CALENDAR_DATE ( 2019, 16, 7 ) ;
#227 = DIRECTION ( 'NONE',  ( -0.0000000000000000000, 3.061515884555961388E-16, -1.000000000000000000 ) ) ;
#228 = EDGE_LOOP ( 'NONE', ( #75, #229, #117, #163 ) ) ;
#229 = ORIENTED_EDGE ( 'NONE', *, *, #24, .F. ) ;
#230 = AXIS2_PLACEMENT_3D ( 'NONE', #100, #72, #28 ) ;
#231 = DIRECTION ( 'NONE',  ( -0.0000000000000000000, 3.061515884555943146E-16, -1.000000000000000000 ) ) ;
#232 = CALENDAR_DATE ( 2019, 16, 7 ) ;
#233 = CARTESIAN_POINT ( 'NONE',  ( 0.0000000000000000000, 8.302831078915718294E-17, -0.1949999999999999789 ) ) ;
#234 = CARTESIAN_POINT ( 'NONE',  ( 0.0000000000000000000, 1.270000000000000906, -0.1750000000000004330 ) ) ;
#235 = PERSON_AND_ORGANIZATION ( #271, #261 ) ;
#236 = FACE_OUTER_BOUND ( 'NONE', #297, .T. ) ;
#237 = ADVANCED_FACE ( 'NONE', ( #97 ), #35, .T. ) ;
#238 = DATE_AND_TIME ( #244, #7 ) ;
#239 = EDGE_LOOP ( 'NONE', ( #99, #137 ) ) ;
#240 = ADVANCED_FACE ( 'NONE', ( #179 ), #124, .T. ) ;
#241 = ADVANCED_BREP_SHAPE_REPRESENTATION ( '20134-E0W', ( #150, #224 ), #39 ) ;
#242 = APPROVAL_STATUS ( 'not_yet_approved' ) ;
#243 = APPLICATION_CONTEXT ( 'configuration controlled 3d designs of mechanical parts and assemblies' ) ;
#244 = CALENDAR_DATE ( 2019, 16, 7 ) ;
#245 = AXIS2_PLACEMENT_3D ( 'NONE', #44, #161, #120 ) ;
#246 = LINE ( 'NONE', #221, #95 ) ;
#247 = VECTOR ( 'NONE', #134, 100.0000000000000000 ) ;
#248 = MECHANICAL_CONTEXT ( 'NONE', #243, 'mechanical' ) ;
#249 = AXIS2_PLACEMENT_3D ( 'NONE', #284, #186, #214 ) ;
#250 = CC_DESIGN_APPROVAL ( #34, ( #215 ) ) ;
#251 = DIRECTION ( 'NONE',  ( 7.282470896337299165E-17, -0.5946588764538179861, -0.8039781220000222772 ) ) ;
#252 = CYLINDRICAL_SURFACE ( 'NONE', #147, 1.270000000000000906 ) ;
#253 = DIRECTION ( 'NONE',  ( 0.0000000000000000000, 1.000000000000000000, 3.122502256758249812E-16 ) ) ;
#254 = CC_DESIGN_PERSON_AND_ORGANIZATION_ASSIGNMENT ( #218, #220, ( #215 ) ) ;
#255 = DIRECTION ( 'NONE',  ( 0.0000000000000000000, -3.061515884555941173E-16, 1.000000000000000000 ) ) ;
#256 = SHAPE_DEFINITION_REPRESENTATION ( #58, #241 ) ;
#257 = FACE_OUTER_BOUND ( 'NONE', #228, .T. ) ;
#258 = EDGE_CURVE ( 'NONE', #56, #27, #194, .T. ) ;
#259 = CARTESIAN_POINT ( 'NONE',  ( 0.0000000000000000000, 2.794169100559943594E-17, -0.01506750296006442724 ) ) ;
#260 = DIRECTION ( 'NONE',  ( 0.0000000000000000000, 1.000000000000000000, 3.199121209731316820E-16 ) ) ;
#261 = ORGANIZATION ( 'UNSPECIFIED', 'UNSPECIFIED', '' ) ;
#262 = DIRECTION ( 'NONE',  ( -0.0000000000000000000, 3.061515884555961388E-16, -1.000000000000000000 ) ) ;
#263 = ORIENTED_EDGE ( 'NONE', *, *, #112, .F. ) ;
#264 = DIRECTION ( 'NONE',  ( 0.0000000000000000000, 1.000000000000000000, 3.051986430421791769E-16 ) ) ;
#265 = LINE ( 'NONE', #1, #203 ) ;
#266 = ORIENTED_EDGE ( 'NONE', *, *, #61, .F. ) ;
#267 = ORIENTED_EDGE ( 'NONE', *, *, #13, .T. ) ;
#268 = DIRECTION ( 'NONE',  ( -0.0000000000000000000, 3.061515884555961388E-16, -1.000000000000000000 ) ) ;
#269 = PERSON_AND_ORGANIZATION_ROLE ( 'creator' ) ;
#270 = EDGE_CURVE ( 'NONE', #16, #56, #140, .T. ) ;
#271 = PERSON ( 'UNSPECIFIED', 'UNSPECIFIED', 'UNSPECIFIED', ('UNSPECIFIED'), ('UNSPECIFIED'), ('UNSPECIFIED') ) ;
#272 = DATE_TIME_ROLE ( 'classification_date' ) ;
#273 = ORIENTED_EDGE ( 'NONE', *, *, #166, .F. ) ;
#274 = EDGE_CURVE ( 'NONE', #207, #175, #90, .T. ) ;
#275 = COORDINATED_UNIVERSAL_TIME_OFFSET ( 5, 0, .BEHIND. ) ;
#276 = CARTESIAN_POINT ( 'NONE',  ( 0.0000000000000000000, 4.948634275796215977E-16, -4.143000000000007788 ) ) ;
#277 = DIRECTION ( 'NONE',  ( 0.0000000000000000000, 1.000000000000000000, 3.073328992872293902E-16 ) ) ;
#278 = CONICAL_SURFACE ( 'NONE', #73, 1.250000000000001110, 0.7853981633974613796 ) ;
#279 = ORIENTED_EDGE ( 'NONE', *, *, #258, .F. ) ;
#280 = DIRECTION ( 'NONE',  ( 0.0000000000000000000, 0.5946588764538185412, -0.8039781220000219442 ) ) ;
#281 = DATE_AND_TIME ( #296, #157 ) ;
#282 = EDGE_CURVE ( 'NONE', #207, #83, #246, .T. ) ;
#283 = CARTESIAN_POINT ( 'NONE',  ( 1.555301434917139813E-16, -1.270000000000000906, -0.01506750296006481409 ) ) ;
#284 = CARTESIAN_POINT ( 'NONE',  ( 0.0000000000000000000, 8.302831078915718294E-17, -0.1949999999999999789 ) ) ;
#285 = LOCAL_TIME ( 7, 11, 57.00000000000000000, #38 ) ;
#286 = FACE_OUTER_BOUND ( 'NONE', #136, .T. ) ;
#287 = EDGE_LOOP ( 'NONE', ( #98, #292, #108, #273 ) ) ;
#288 = CARTESIAN_POINT ( 'NONE',  ( 0.0000000000000000000, 8.302831078915724457E-17, -0.1950000000000001732 ) ) ;
#289 = EDGE_LOOP ( 'NONE', ( #43, #279, #125, #300 ) ) ;
#290 = PERSON_AND_ORGANIZATION ( #271, #261 ) ;
#291 = ORIENTED_EDGE ( 'NONE', *, *, #139, .T. ) ;
#292 = ORIENTED_EDGE ( 'NONE', *, *, #29, .T. ) ;
#293 = FACE_OUTER_BOUND ( 'NONE', #48, .T. ) ;
#294 = AXIS2_PLACEMENT_3D ( 'NONE', #36, #86, #172 ) ;
#295 = DIRECTION ( 'NONE',  ( 1.000000000000000000, 0.0000000000000000000, -0.0000000000000000000 ) ) ;
#296 = CALENDAR_DATE ( 2019, 16, 7 ) ;
#297 = EDGE_LOOP ( 'NONE', ( #3, #84, #267 ) ) ;
#298 = CC_DESIGN_APPROVAL ( #171, ( #123 ) ) ;
#299 = CARTESIAN_POINT ( 'NONE',  ( 1.543054966925666062E-16, 1.250000000000001110, -0.1949999999999997846 ) ) ;
#300 = ORIENTED_EDGE ( 'NONE', *, *, #274, .F. ) ;
#301 = DIRECTION ( 'NONE',  ( 0.0000000000000000000, -1.000000000000000000, -3.122502256758249812E-16 ) ) ;
ENDSEC;
END-ISO-10303-21;
