ISO-10303-21;
HEADER;
FILE_DESCRIPTION (( 'STEP AP203' ),
    '1' );
FILE_NAME ('Web Model 15426_15426.step',
    '2020-07-31T18:49:23',
    ( '' ),
    ( '' ),
    'SwSTEP 2.0',
    'SolidWorks 2018',
    '' );
FILE_SCHEMA (( 'CONFIG_CONTROL_DESIGN' ));
ENDSEC;

DATA;
#1 = PRODUCT_DEFINITION ( 'UNKNOWN', '', #139, #24 ) ;
#2 =( LENGTH_UNIT ( ) NAMED_UNIT ( * ) SI_UNIT ( .MILLI., .METRE. ) );
#3 = DIRECTION ( 'NONE',  ( -1.000000000000000000, 0.0000000000000000000, 0.0000000000000000000 ) ) ;
#4 = PERSON_AND_ORGANIZATION_ROLE ( 'design_supplier' ) ;
#5 = DIRECTION ( 'NONE',  ( 1.000000000000000000, 0.0000000000000000000, 0.0000000000000000000 ) ) ;
#6 = AXIS2_PLACEMENT_3D ( 'NONE', #51, #154, #21 ) ;
#7 = EDGE_CURVE ( 'NONE', #115, #22, #99, .T. ) ;
#8 = APPROVAL_PERSON_ORGANIZATION ( #98, #119, #155 ) ;
#9 = MANIFOLD_SOLID_BREP ( 'Boss-Extrude1', #148 ) ;
#10 = CALENDAR_DATE ( 2020, 31, 7 ) ;
#11 = ORIENTED_EDGE ( 'NONE', *, *, #71, .F. ) ;
#12 = CC_DESIGN_DATE_AND_TIME_ASSIGNMENT ( #72, #171, ( #1 ) ) ;
#13 = COORDINATED_UNIVERSAL_TIME_OFFSET ( 5, 0, .BEHIND. ) ;
#14 = ADVANCED_FACE ( 'NONE', ( #84 ), #42, .T. ) ;
#15 = PERSON_AND_ORGANIZATION ( #97, #89 ) ;
#16 = CYLINDRICAL_SURFACE ( 'NONE', #172, 25.39999999999999858 ) ;
#17 = CARTESIAN_POINT ( 'NONE',  ( 0.0000000000000000000, 0.0000000000000000000, 2.000000000000000000 ) ) ;
#18 = CC_DESIGN_APPROVAL ( #88, ( #92 ) ) ;
#19 = APPROVAL_ROLE ( '' ) ;
#20 = CARTESIAN_POINT ( 'NONE',  ( 0.0000000000000000000, 0.0000000000000000000, 2.000000000000000000 ) ) ;
#21 = DIRECTION ( 'NONE',  ( 1.000000000000000000, 0.0000000000000000000, -0.0000000000000000000 ) ) ;
#22 = VERTEX_POINT ( 'NONE', #168 ) ;
#23 = SECURITY_CLASSIFICATION_LEVEL ( 'unclassified' ) ;
#24 = DESIGN_CONTEXT ( 'detailed design', #91, 'design' ) ;
#25 = COORDINATED_UNIVERSAL_TIME_OFFSET ( 5, 0, .BEHIND. ) ;
#26 = CC_DESIGN_PERSON_AND_ORGANIZATION_ASSIGNMENT ( #116, #120, ( #92 ) ) ;
#27 = LINE ( 'NONE', #169, #59 ) ;
#28 = ADVANCED_FACE ( 'NONE', ( #45 ), #46, .T. ) ;
#29 = SHAPE_DEFINITION_REPRESENTATION ( #159, #163 ) ;
#30 = EDGE_LOOP ( 'NONE', ( #32, #82 ) ) ;
#31 = DIRECTION ( 'NONE',  ( -0.0000000000000000000, -0.0000000000000000000, -1.000000000000000000 ) ) ;
#32 = ORIENTED_EDGE ( 'NONE', *, *, #77, .T. ) ;
#33 = CC_DESIGN_SECURITY_CLASSIFICATION ( #92, ( #139 ) ) ;
#34 = DIRECTION ( 'NONE',  ( -0.0000000000000000000, -0.0000000000000000000, -1.000000000000000000 ) ) ;
#35 = COORDINATED_UNIVERSAL_TIME_OFFSET ( 5, 0, .BEHIND. ) ;
#36 = CARTESIAN_POINT ( 'NONE',  ( 0.0000000000000000000, 0.0000000000000000000, 2.000000000000000000 ) ) ;
#37 =( NAMED_UNIT ( * ) PLANE_ANGLE_UNIT ( ) SI_UNIT ( $, .RADIAN. ) );
#38 = DATE_TIME_ROLE ( 'classification_date' ) ;
#39 = CARTESIAN_POINT ( 'NONE',  ( -25.39999999999999858, 0.0000000000000000000, -2.000000000000000000 ) ) ;
#40 = CIRCLE ( 'NONE', #128, 25.39999999999999858 ) ;
#41 = DATE_AND_TIME ( #136, #102 ) ;
#42 = CYLINDRICAL_SURFACE ( 'NONE', #164, 25.39999999999999858 ) ;
#43 = AXIS2_PLACEMENT_3D ( 'NONE', #48, #49, #138 ) ;
#44 = APPROVAL_DATE_TIME ( #41, #88 ) ;
#45 = FACE_OUTER_BOUND ( 'NONE', #30, .T. ) ;
#46 = PLANE ( 'NONE',  #43 ) ;
#47 = PERSON_AND_ORGANIZATION ( #97, #89 ) ;
#48 = CARTESIAN_POINT ( 'NONE',  ( 0.0000000000000000000, 0.0000000000000000000, 2.000000000000000000 ) ) ;
#49 = DIRECTION ( 'NONE',  ( 0.0000000000000000000, 0.0000000000000000000, 1.000000000000000000 ) ) ;
#50 = CALENDAR_DATE ( 2020, 31, 7 ) ;
#51 = CARTESIAN_POINT ( 'NONE',  ( 0.0000000000000000000, 0.0000000000000000000, -2.000000000000000000 ) ) ;
#52 = DIRECTION ( 'NONE',  ( -0.0000000000000000000, -0.0000000000000000000, -1.000000000000000000 ) ) ;
#53 = DATE_AND_TIME ( #85, #95 ) ;
#54 = ORIENTED_EDGE ( 'NONE', *, *, #7, .F. ) ;
#55 = APPROVAL_STATUS ( 'not_yet_approved' ) ;
#56 = DIRECTION ( 'NONE',  ( 1.000000000000000000, 0.0000000000000000000, 0.0000000000000000000 ) ) ;
#57 = PERSON_AND_ORGANIZATION ( #97, #89 ) ;
#58 = AXIS2_PLACEMENT_3D ( 'NONE', #36, #69, #131 ) ;
#59 = VECTOR ( 'NONE', #34, 1000.000000000000000 ) ;
#60 = EDGE_CURVE ( 'NONE', #115, #61, #68, .T. ) ;
#61 = VERTEX_POINT ( 'NONE', #142 ) ;
#62 = ADVANCED_FACE ( 'NONE', ( #162 ), #118, .F. ) ;
#63 = DIRECTION ( 'NONE',  ( -1.000000000000000000, 0.0000000000000000000, 0.0000000000000000000 ) ) ;
#64 = ORIENTED_EDGE ( 'NONE', *, *, #86, .F. ) ;
#65 = CC_DESIGN_PERSON_AND_ORGANIZATION_ASSIGNMENT ( #160, #4, ( #139 ) ) ;
#66 = PERSON_AND_ORGANIZATION_ROLE ( 'creator' ) ;
#67 = DIRECTION ( 'NONE',  ( 0.0000000000000000000, 0.0000000000000000000, 1.000000000000000000 ) ) ;
#68 = CIRCLE ( 'NONE', #110, 25.39999999999999858 ) ;
#69 = DIRECTION ( 'NONE',  ( 0.0000000000000000000, 0.0000000000000000000, 1.000000000000000000 ) ) ;
#70 = APPROVAL ( #107, 'UNSPECIFIED' ) ;
#71 = EDGE_CURVE ( 'NONE', #61, #153, #27, .T. ) ;
#72 = DATE_AND_TIME ( #10, #151 ) ;
#73 = EDGE_LOOP ( 'NONE', ( #87, #157, #140, #11 ) ) ;
#74 = CC_DESIGN_PERSON_AND_ORGANIZATION_ASSIGNMENT ( #47, #80, ( #127 ) ) ;
#75 = ADVANCED_FACE ( 'NONE', ( #175 ), #16, .T. ) ;
#76 = AXIS2_PLACEMENT_3D ( 'NONE', #104, #79, #56 ) ;
#77 = EDGE_CURVE ( 'NONE', #61, #115, #165, .T. ) ;
#78 = ORIENTED_EDGE ( 'NONE', *, *, #77, .F. ) ;
#79 = DIRECTION ( 'NONE',  ( 0.0000000000000000000, 0.0000000000000000000, 1.000000000000000000 ) ) ;
#80 = PERSON_AND_ORGANIZATION_ROLE ( 'design_owner' ) ;
#81 = DATE_AND_TIME ( #113, #174 ) ;
#82 = ORIENTED_EDGE ( 'NONE', *, *, #60, .T. ) ;
#83 = APPROVAL_PERSON_ORGANIZATION ( #15, #88, #117 ) ;
#84 = FACE_OUTER_BOUND ( 'NONE', #109, .T. ) ;
#85 = CALENDAR_DATE ( 2020, 31, 7 ) ;
#86 = EDGE_CURVE ( 'NONE', #153, #22, #135, .T. ) ;
#87 = ORIENTED_EDGE ( 'NONE', *, *, #60, .F. ) ;
#88 = APPROVAL ( #55, 'UNSPECIFIED' ) ;
#89 = ORGANIZATION ( 'UNSPECIFIED', 'UNSPECIFIED', '' ) ;
#90 = PRODUCT_RELATED_PRODUCT_CATEGORY ( 'detail', '', ( #127 ) ) ;
#91 = APPLICATION_CONTEXT ( 'configuration controlled 3d designs of mechanical parts and assemblies' ) ;
#92 = SECURITY_CLASSIFICATION ( '', '', #23 ) ;
#93 =( NAMED_UNIT ( * ) SI_UNIT ( $, .STERADIAN. ) SOLID_ANGLE_UNIT ( ) );
#94 = CARTESIAN_POINT ( 'NONE',  ( 25.39999999999999858, 3.110602869834276865E-15, 2.000000000000000000 ) ) ;
#95 = LOCAL_TIME ( 14, 49, 23.00000000000000000, #13 ) ;
#96 = ORIENTED_EDGE ( 'NONE', *, *, #150, .F. ) ;
#97 = PERSON ( 'UNSPECIFIED', 'UNSPECIFIED', 'UNSPECIFIED', ('UNSPECIFIED'), ('UNSPECIFIED'), ('UNSPECIFIED') ) ;
#98 = PERSON_AND_ORGANIZATION ( #97, #89 ) ;
#99 = LINE ( 'NONE', #126, #167 ) ;
#100 = ORIENTED_EDGE ( 'NONE', *, *, #86, .T. ) ;
#101 = CARTESIAN_POINT ( 'NONE',  ( 0.0000000000000000000, 0.0000000000000000000, 0.0000000000000000000 ) ) ;
#102 = LOCAL_TIME ( 14, 49, 23.00000000000000000, #152 ) ;
#103 = APPROVAL_STATUS ( 'not_yet_approved' ) ;
#104 = CARTESIAN_POINT ( 'NONE',  ( 0.0000000000000000000, 0.0000000000000000000, -2.000000000000000000 ) ) ;
#105 = CARTESIAN_POINT ( 'NONE',  ( 0.0000000000000000000, 0.0000000000000000000, -2.000000000000000000 ) ) ;
#106 = CC_DESIGN_PERSON_AND_ORGANIZATION_ASSIGNMENT ( #57, #66, ( #1 ) ) ;
#107 = APPROVAL_STATUS ( 'not_yet_approved' ) ;
#108 = DATE_AND_TIME ( #50, #122 ) ;
#109 = EDGE_LOOP ( 'NONE', ( #54, #78, #112, #100 ) ) ;
#110 = AXIS2_PLACEMENT_3D ( 'NONE', #20, #67, #144 ) ;
#111 = PERSON_AND_ORGANIZATION ( #97, #89 ) ;
#112 = ORIENTED_EDGE ( 'NONE', *, *, #71, .T. ) ;
#113 = CALENDAR_DATE ( 2020, 31, 7 ) ;
#114 =( GEOMETRIC_REPRESENTATION_CONTEXT ( 3 ) GLOBAL_UNCERTAINTY_ASSIGNED_CONTEXT ( ( #124 ) ) GLOBAL_UNIT_ASSIGNED_CONTEXT ( ( #2, #37, #93 ) ) REPRESENTATION_CONTEXT ( 'NONE', 'WORKASPACE' ) );
#115 = VERTEX_POINT ( 'NONE', #94 ) ;
#116 = PERSON_AND_ORGANIZATION ( #97, #89 ) ;
#117 = APPROVAL_ROLE ( '' ) ;
#118 = PLANE ( 'NONE',  #6 ) ;
#119 = APPROVAL ( #103, 'UNSPECIFIED' ) ;
#120 = PERSON_AND_ORGANIZATION_ROLE ( 'classification_officer' ) ;
#121 = DIRECTION ( 'NONE',  ( 0.0000000000000000000, 0.0000000000000000000, 1.000000000000000000 ) ) ;
#122 = LOCAL_TIME ( 14, 49, 23.00000000000000000, #35 ) ;
#123 = CC_DESIGN_PERSON_AND_ORGANIZATION_ASSIGNMENT ( #143, #134, ( #139 ) ) ;
#124 = UNCERTAINTY_MEASURE_WITH_UNIT (LENGTH_MEASURE( 1.000000000000000082E-05 ), #2, 'distance_accuracy_value', 'NONE');
#125 = CC_DESIGN_APPROVAL ( #119, ( #1 ) ) ;
#126 = CARTESIAN_POINT ( 'NONE',  ( 25.39999999999999858, 3.110602869834276865E-15, 2.000000000000000000 ) ) ;
#127 = PRODUCT ( 'Web Model 15426_15426', 'Web Model 15426_15426', '', ( #156 ) ) ;
#128 = AXIS2_PLACEMENT_3D ( 'NONE', #105, #145, #133 ) ;
#129 = APPROVAL_DATE_TIME ( #81, #119 ) ;
#130 = APPLICATION_CONTEXT ( 'configuration controlled 3d designs of mechanical parts and assemblies' ) ;
#131 = DIRECTION ( 'NONE',  ( 1.000000000000000000, 0.0000000000000000000, 0.0000000000000000000 ) ) ;
#132 = APPROVAL_PERSON_ORGANIZATION ( #111, #70, #19 ) ;
#133 = DIRECTION ( 'NONE',  ( 1.000000000000000000, 0.0000000000000000000, 0.0000000000000000000 ) ) ;
#134 = PERSON_AND_ORGANIZATION_ROLE ( 'creator' ) ;
#135 = CIRCLE ( 'NONE', #76, 25.39999999999999858 ) ;
#136 = CALENDAR_DATE ( 2020, 31, 7 ) ;
#137 = EDGE_LOOP ( 'NONE', ( #64, #96 ) ) ;
#138 = DIRECTION ( 'NONE',  ( 1.000000000000000000, 0.0000000000000000000, -0.0000000000000000000 ) ) ;
#139 = PRODUCT_DEFINITION_FORMATION_WITH_SPECIFIED_SOURCE ( 'ANY', '', #127, .NOT_KNOWN. ) ;
#140 = ORIENTED_EDGE ( 'NONE', *, *, #150, .T. ) ;
#141 = DIRECTION ( 'NONE',  ( -0.0000000000000000000, -0.0000000000000000000, -1.000000000000000000 ) ) ;
#142 = CARTESIAN_POINT ( 'NONE',  ( -25.39999999999999858, 0.0000000000000000000, 2.000000000000000000 ) ) ;
#143 = PERSON_AND_ORGANIZATION ( #97, #89 ) ;
#144 = DIRECTION ( 'NONE',  ( 1.000000000000000000, 0.0000000000000000000, 0.0000000000000000000 ) ) ;
#145 = DIRECTION ( 'NONE',  ( 0.0000000000000000000, 0.0000000000000000000, 1.000000000000000000 ) ) ;
#146 = APPLICATION_PROTOCOL_DEFINITION ( 'international standard', 'config_control_design', 1994, #130 ) ;
#147 = CARTESIAN_POINT ( 'NONE',  ( 0.0000000000000000000, 0.0000000000000000000, 2.000000000000000000 ) ) ;
#148 = CLOSED_SHELL ( 'NONE', ( #75, #14, #28, #62 ) ) ;
#149 = APPROVAL_DATE_TIME ( #108, #70 ) ;
#150 = EDGE_CURVE ( 'NONE', #22, #153, #40, .T. ) ;
#151 = LOCAL_TIME ( 14, 49, 23.00000000000000000, #173 ) ;
#152 = COORDINATED_UNIVERSAL_TIME_OFFSET ( 5, 0, .BEHIND. ) ;
#153 = VERTEX_POINT ( 'NONE', #39 ) ;
#154 = DIRECTION ( 'NONE',  ( 0.0000000000000000000, 0.0000000000000000000, 1.000000000000000000 ) ) ;
#155 = APPROVAL_ROLE ( '' ) ;
#156 = MECHANICAL_CONTEXT ( 'NONE', #130, 'mechanical' ) ;
#157 = ORIENTED_EDGE ( 'NONE', *, *, #7, .T. ) ;
#158 = APPLICATION_PROTOCOL_DEFINITION ( 'international standard', 'config_control_design', 1994, #91 ) ;
#159 = PRODUCT_DEFINITION_SHAPE ( 'NONE', 'NONE',  #1 ) ;
#160 = PERSON_AND_ORGANIZATION ( #97, #89 ) ;
#161 = AXIS2_PLACEMENT_3D ( 'NONE', #101, #121, #5 ) ;
#162 = FACE_OUTER_BOUND ( 'NONE', #137, .T. ) ;
#163 = ADVANCED_BREP_SHAPE_REPRESENTATION ( 'Web Model 15426_15426', ( #9, #161 ), #114 ) ;
#164 = AXIS2_PLACEMENT_3D ( 'NONE', #17, #31, #63 ) ;
#165 = CIRCLE ( 'NONE', #58, 25.39999999999999858 ) ;
#166 = CC_DESIGN_APPROVAL ( #70, ( #139 ) ) ;
#167 = VECTOR ( 'NONE', #141, 1000.000000000000000 ) ;
#168 = CARTESIAN_POINT ( 'NONE',  ( 25.39999999999999858, 3.110602869834276865E-15, -2.000000000000000000 ) ) ;
#169 = CARTESIAN_POINT ( 'NONE',  ( -25.39999999999999858, 0.0000000000000000000, 2.000000000000000000 ) ) ;
#170 = CC_DESIGN_DATE_AND_TIME_ASSIGNMENT ( #53, #38, ( #92 ) ) ;
#171 = DATE_TIME_ROLE ( 'creation_date' ) ;
#172 = AXIS2_PLACEMENT_3D ( 'NONE', #147, #52, #3 ) ;
#173 = COORDINATED_UNIVERSAL_TIME_OFFSET ( 5, 0, .BEHIND. ) ;
#174 = LOCAL_TIME ( 14, 49, 23.00000000000000000, #25 ) ;
#175 = FACE_OUTER_BOUND ( 'NONE', #73, .T. ) ;
ENDSEC;
END-ISO-10303-21;
