ISO-10303-21;
HEADER;
FILE_DESCRIPTION (( 'STEP AP203' ),
    '1' );
FILE_NAME ('step_35946.step',
    '2017-05-22T20:26:24',
    ( '' ),
    ( '' ),
    'SwSTEP 2.0',
    'SolidWorks 2016',
    '' );
FILE_SCHEMA (( 'CONFIG_CONTROL_DESIGN' ));
ENDSEC;

DATA;
#1 = DIRECTION ( 'NONE',  ( 1.000000000000000000, 6.938893903907228400E-017, -0.0000000000000000000 ) ) ;
#2 = CC_DESIGN_SECURITY_CLASSIFICATION ( #21, ( #41 ) ) ;
#3 = DATE_AND_TIME ( #6, #10 ) ;
#4 = CARTESIAN_POINT ( 'NONE',  ( -24.99999999999999600, 24.99999999999999300, 1.000000000000000000 ) ) ;
#5 = CC_DESIGN_APPROVAL ( #11, ( #21 ) ) ;
#6 = CALENDAR_DATE ( 2017, 22, 5 ) ;
#7 = CARTESIAN_POINT ( 'NONE',  ( -24.99999999999999600, 24.99999999999999300, 1.000000000000000000 ) ) ;
#8 = PLANE ( 'NONE',  #146 ) ;
#9 = DIRECTION ( 'NONE',  ( 6.938893903907228400E-017, -1.000000000000000000, 0.0000000000000000000 ) ) ;
#10 = LOCAL_TIME ( 13, 26, 24.00000000000000000, #15 ) ;
#11 = APPROVAL ( #161, 'UNSPECIFIED' ) ;
#12 = DIRECTION ( 'NONE',  ( 0.0000000000000000000, -1.000000000000000000, 0.0000000000000000000 ) ) ;
#13 = CC_DESIGN_DATE_AND_TIME_ASSIGNMENT ( #20, #163, ( #21 ) ) ;
#14 = ORIENTED_EDGE ( 'NONE', *, *, #234, .F. ) ;
#15 = COORDINATED_UNIVERSAL_TIME_OFFSET ( 7, 0, .BEHIND. ) ;
#16 = APPROVAL_PERSON_ORGANIZATION ( #17, #11, #158 ) ;
#17 = PERSON_AND_ORGANIZATION ( #230, #235 ) ;
#18 = CARTESIAN_POINT ( 'NONE',  ( 25.00000000000000000, 24.99999999999999300, 0.0000000000000000000 ) ) ;
#19 = CC_DESIGN_PERSON_AND_ORGANIZATION_ASSIGNMENT ( #28, #166, ( #21 ) ) ;
#20 = DATE_AND_TIME ( #24, #25 ) ;
#21 = SECURITY_CLASSIFICATION ( '', '', #167 ) ;
#22 = CC_DESIGN_PERSON_AND_ORGANIZATION_ASSIGNMENT ( #29, #169, ( #41 ) ) ;
#23 = CARTESIAN_POINT ( 'NONE',  ( 0.0000000000000000000, 0.0000000000000000000, 1.000000000000000000 ) ) ;
#24 = CALENDAR_DATE ( 2017, 22, 5 ) ;
#25 = LOCAL_TIME ( 13, 26, 24.00000000000000000, #26 ) ;
#26 = COORDINATED_UNIVERSAL_TIME_OFFSET ( 7, 0, .BEHIND. ) ;
#27 = CC_DESIGN_PERSON_AND_ORGANIZATION_ASSIGNMENT ( #30, #91, ( #41 ) ) ;
#28 = PERSON_AND_ORGANIZATION ( #230, #235 ) ;
#29 = PERSON_AND_ORGANIZATION ( #230, #235 ) ;
#30 = PERSON_AND_ORGANIZATION ( #230, #235 ) ;
#31 = APPROVAL_DATE_TIME ( #32, #39 ) ;
#32 = DATE_AND_TIME ( #34, #35 ) ;
#33 = CC_DESIGN_APPROVAL ( #39, ( #41 ) ) ;
#34 = CALENDAR_DATE ( 2017, 22, 5 ) ;
#35 = LOCAL_TIME ( 13, 26, 24.00000000000000000, #36 ) ;
#36 = COORDINATED_UNIVERSAL_TIME_OFFSET ( 7, 0, .BEHIND. ) ;
#37 = CARTESIAN_POINT ( 'NONE',  ( -24.99999999999999600, 24.99999999999999300, 1.000000000000000000 ) ) ;
#38 = APPROVAL_PERSON_ORGANIZATION ( #40, #39, #143 ) ;
#39 = APPROVAL ( #97, 'UNSPECIFIED' ) ;
#40 = PERSON_AND_ORGANIZATION ( #230, #235 ) ;
#41 = PRODUCT_DEFINITION_FORMATION_WITH_SPECIFIED_SOURCE ( 'ANY', '', #48, .NOT_KNOWN. ) ;
#42 = DATE_AND_TIME ( #53, #44 ) ;
#43 = FACE_OUTER_BOUND ( 'NONE', #227, .T. ) ;
#44 = LOCAL_TIME ( 13, 26, 24.00000000000000000, #170 ) ;
#45 = CC_DESIGN_DATE_AND_TIME_ASSIGNMENT ( #42, #74, ( #59 ) ) ;
#46 = DIRECTION ( 'NONE',  ( -6.938893903907228400E-017, 1.000000000000000000, -0.0000000000000000000 ) ) ;
#47 = CC_DESIGN_PERSON_AND_ORGANIZATION_ASSIGNMENT ( #157, #131, ( #59 ) ) ;
#48 = PRODUCT ( 'step_35946', 'step_35946', '', ( #224 ) ) ;
#49 = APPROVAL_DATE_TIME ( #129, #55 ) ;
#50 = EDGE_LOOP ( 'NONE', ( #148, #75, #145, #107 ) ) ;
#51 = LINE ( 'NONE', #115, #79 ) ;
#52 = CC_DESIGN_APPROVAL ( #55, ( #59 ) ) ;
#53 = CALENDAR_DATE ( 2017, 22, 5 ) ;
#54 = EDGE_LOOP ( 'NONE', ( #152, #232, #191, #213 ) ) ;
#55 = APPROVAL ( #138, 'UNSPECIFIED' ) ;
#56 = DIRECTION ( 'NONE',  ( -1.000000000000000000, -0.0000000000000000000, -0.0000000000000000000 ) ) ;
#57 = FACE_OUTER_BOUND ( 'NONE', #54, .T. ) ;
#58 = LINE ( 'NONE', #70, #113 ) ;
#59 = PRODUCT_DEFINITION ( 'UNKNOWN', '', #41, #68 ) ;
#60 = CARTESIAN_POINT ( 'NONE',  ( -24.99999999999999300, -25.00000000000000700, 0.0000000000000000000 ) ) ;
#61 = DIRECTION ( 'NONE',  ( -0.0000000000000000000, -0.0000000000000000000, -1.000000000000000000 ) ) ;
#62 = CC_DESIGN_PERSON_AND_ORGANIZATION_ASSIGNMENT ( #128, #219, ( #48 ) ) ;
#63 = VERTEX_POINT ( 'NONE', #160 ) ;
#64 = AXIS2_PLACEMENT_3D ( 'NONE', #154, #153, #225 ) ;
#65 = CARTESIAN_POINT ( 'NONE',  ( 25.00000000000000000, 24.99999999999999300, 1.000000000000000000 ) ) ;
#66 = DIRECTION ( 'NONE',  ( -0.0000000000000000000, 0.0000000000000000000, 1.000000000000000000 ) ) ;
#67 = CARTESIAN_POINT ( 'NONE',  ( -24.99999999999999300, -25.00000000000000700, 1.000000000000000000 ) ) ;
#68 = DESIGN_CONTEXT ( 'detailed design', #218, 'design' ) ;
#69 = ADVANCED_FACE ( 'NONE', ( #43 ), #229, .T. ) ;
#70 = CARTESIAN_POINT ( 'NONE',  ( -24.99999999999999600, 24.99999999999999300, 1.000000000000000000 ) ) ;
#71 = ADVANCED_FACE ( 'NONE', ( #57 ), #76, .F. ) ;
#72 = VECTOR ( 'NONE', #56, 1000.000000000000000 ) ;
#73 = CARTESIAN_POINT ( 'NONE',  ( -24.99999999999999300, -25.00000000000000700, 1.000000000000000000 ) ) ;
#74 = DATE_TIME_ROLE ( 'creation_date' ) ;
#75 = ORIENTED_EDGE ( 'NONE', *, *, #127, .F. ) ;
#76 = PLANE ( 'NONE',  #233 ) ;
#77 = CARTESIAN_POINT ( 'NONE',  ( -24.99999999999999600, 24.99999999999999300, 0.0000000000000000000 ) ) ;
#78 = EDGE_CURVE ( 'NONE', #209, #204, #174, .T. ) ;
#79 = VECTOR ( 'NONE', #192, 1000.000000000000000 ) ;
#80 = CARTESIAN_POINT ( 'NONE',  ( -24.99999999999999600, 24.99999999999999300, 1.000000000000000000 ) ) ;
#81 = ORIENTED_EDGE ( 'NONE', *, *, #149, .T. ) ;
#82 = DIRECTION ( 'NONE',  ( -0.0000000000000000000, -0.0000000000000000000, -1.000000000000000000 ) ) ;
#83 = AXIS2_PLACEMENT_3D ( 'NONE', #37, #1, #236 ) ;
#84 = VECTOR ( 'NONE', #61, 1000.000000000000000 ) ;
#85 = PRODUCT_RELATED_PRODUCT_CATEGORY ( 'detail', '', ( #48 ) ) ;
#86 = FACE_OUTER_BOUND ( 'NONE', #92, .T. ) ;
#87 = VECTOR ( 'NONE', #46, 1000.000000000000000 ) ;
#88 = CARTESIAN_POINT ( 'NONE',  ( 25.00000000000000400, -25.00000000000000700, 1.000000000000000000 ) ) ;
#89 = LINE ( 'NONE', #80, #72 ) ;
#90 = CARTESIAN_POINT ( 'NONE',  ( 25.00000000000000400, -25.00000000000000700, 0.0000000000000000000 ) ) ;
#91 = PERSON_AND_ORGANIZATION_ROLE ( 'creator' ) ;
#92 = EDGE_LOOP ( 'NONE', ( #185, #197, #196, #140 ) ) ;
#93 = CALENDAR_DATE ( 2017, 22, 5 ) ;
#94 = VECTOR ( 'NONE', #9, 1000.000000000000000 ) ;
#95 =( GEOMETRIC_REPRESENTATION_CONTEXT ( 3 ) GLOBAL_UNCERTAINTY_ASSIGNED_CONTEXT ( ( #164 ) ) GLOBAL_UNIT_ASSIGNED_CONTEXT ( ( #156, #168, #162 ) ) REPRESENTATION_CONTEXT ( 'NONE', 'WORKASPACE' ) );
#96 = ORIENTED_EDGE ( 'NONE', *, *, #127, .T. ) ;
#97 = APPROVAL_STATUS ( 'not_yet_approved' ) ;
#98 = CARTESIAN_POINT ( 'NONE',  ( 25.00000000000000000, 24.99999999999999300, 1.000000000000000000 ) ) ;
#99 = CARTESIAN_POINT ( 'NONE',  ( 25.00000000000000000, 24.99999999999999300, 1.000000000000000000 ) ) ;
#100 = DIRECTION ( 'NONE',  ( -0.0000000000000000000, -0.0000000000000000000, -1.000000000000000000 ) ) ;
#101 = APPLICATION_PROTOCOL_DEFINITION ( 'international standard', 'config_control_design', 1994, #200 ) ;
#102 = DIRECTION ( 'NONE',  ( 0.0000000000000000000, 1.000000000000000000, 0.0000000000000000000 ) ) ;
#103 = SHAPE_DEFINITION_REPRESENTATION ( #177, #207 ) ;
#104 = EDGE_CURVE ( 'NONE', #63, #187, #89, .T. ) ;
#105 = VECTOR ( 'NONE', #122, 1000.000000000000000 ) ;
#106 = AXIS2_PLACEMENT_3D ( 'NONE', #137, #66, #205 ) ;
#107 = ORIENTED_EDGE ( 'NONE', *, *, #215, .T. ) ;
#108 = LINE ( 'NONE', #178, #105 ) ;
#109 = LINE ( 'NONE', #98, #84 ) ;
#110 = CARTESIAN_POINT ( 'NONE',  ( -24.99999999999999300, -25.00000000000000700, 1.000000000000000000 ) ) ;
#111 = FACE_OUTER_BOUND ( 'NONE', #221, .T. ) ;
#112 = PLANE ( 'NONE',  #83 ) ;
#113 = VECTOR ( 'NONE', #82, 1000.000000000000000 ) ;
#114 = MANIFOLD_SOLID_BREP ( 'Boss-Extrude1', #194 ) ;
#115 = CARTESIAN_POINT ( 'NONE',  ( -24.99999999999999600, 24.99999999999999300, 0.0000000000000000000 ) ) ;
#116 = LINE ( 'NONE', #110, #121 ) ;
#117 = EDGE_CURVE ( 'NONE', #123, #195, #51, .T. ) ;
#118 = LINE ( 'NONE', #7, #94 ) ;
#119 = LINE ( 'NONE', #99, #222 ) ;
#120 = ADVANCED_FACE ( 'NONE', ( #111 ), #155, .F. ) ;
#121 = VECTOR ( 'NONE', #190, 1000.000000000000000 ) ;
#122 = DIRECTION ( 'NONE',  ( 1.000000000000000000, 0.0000000000000000000, 0.0000000000000000000 ) ) ;
#123 = VERTEX_POINT ( 'NONE', #77 ) ;
#124 = LINE ( 'NONE', #73, #189 ) ;
#125 = FACE_OUTER_BOUND ( 'NONE', #50, .T. ) ;
#126 = VECTOR ( 'NONE', #201, 1000.000000000000000 ) ;
#127 = EDGE_CURVE ( 'NONE', #159, #195, #116, .T. ) ;
#128 = PERSON_AND_ORGANIZATION ( #230, #235 ) ;
#129 = DATE_AND_TIME ( #93, #172 ) ;
#130 = APPROVAL_ROLE ( '' ) ;
#131 = PERSON_AND_ORGANIZATION_ROLE ( 'creator' ) ;
#132 = DIRECTION ( 'NONE',  ( 1.000000000000000000, 0.0000000000000000000, 0.0000000000000000000 ) ) ;
#133 = EDGE_CURVE ( 'NONE', #204, #123, #171, .T. ) ;
#134 = CARTESIAN_POINT ( 'NONE',  ( -24.99999999999999600, 24.99999999999999300, 0.0000000000000000000 ) ) ;
#135 = DIRECTION ( 'NONE',  ( -0.0000000000000000000, 0.0000000000000000000, 1.000000000000000000 ) ) ;
#136 = APPROVAL_DATE_TIME ( #3, #11 ) ;
#137 = CARTESIAN_POINT ( 'NONE',  ( 0.0000000000000000000, 0.0000000000000000000, 0.0000000000000000000 ) ) ;
#138 = APPROVAL_STATUS ( 'not_yet_approved' ) ;
#139 = APPROVAL_PERSON_ORGANIZATION ( #147, #55, #130 ) ;
#140 = ORIENTED_EDGE ( 'NONE', *, *, #234, .T. ) ;
#141 = DIRECTION ( 'NONE',  ( -1.000000000000000000, -6.938893903907228400E-017, 0.0000000000000000000 ) ) ;
#142 = EDGE_CURVE ( 'NONE', #202, #63, #119, .T. ) ;
#143 = APPROVAL_ROLE ( '' ) ;
#144 = CARTESIAN_POINT ( 'NONE',  ( 25.00000000000000400, -25.00000000000000700, 1.000000000000000000 ) ) ;
#145 = ORIENTED_EDGE ( 'NONE', *, *, #214, .F. ) ;
#146 = AXIS2_PLACEMENT_3D ( 'NONE', #65, #141, #179 ) ;
#147 = PERSON_AND_ORGANIZATION ( #230, #235 ) ;
#148 = ORIENTED_EDGE ( 'NONE', *, *, #117, .T. ) ;
#149 = EDGE_CURVE ( 'NONE', #159, #202, #124, .T. ) ;
#150 = DIRECTION ( 'NONE',  ( 0.0000000000000000000, -0.0000000000000000000, -1.000000000000000000 ) ) ;
#151 = AXIS2_PLACEMENT_3D ( 'NONE', #67, #102, #226 ) ;
#152 = ORIENTED_EDGE ( 'NONE', *, *, #133, .T. ) ;
#153 = DIRECTION ( 'NONE',  ( 0.0000000000000000000, 0.0000000000000000000, 1.000000000000000000 ) ) ;
#154 = CARTESIAN_POINT ( 'NONE',  ( 0.0000000000000000000, 0.0000000000000000000, 0.0000000000000000000 ) ) ;
#155 = PLANE ( 'NONE',  #106 ) ;
#156 =( LENGTH_UNIT ( ) NAMED_UNIT ( * ) SI_UNIT ( .MILLI., .METRE. ) );
#157 = PERSON_AND_ORGANIZATION ( #230, #235 ) ;
#158 = APPROVAL_ROLE ( '' ) ;
#159 = VERTEX_POINT ( 'NONE', #210 ) ;
#160 = CARTESIAN_POINT ( 'NONE',  ( 25.00000000000000000, 24.99999999999999300, 1.000000000000000000 ) ) ;
#161 = APPROVAL_STATUS ( 'not_yet_approved' ) ;
#162 =( NAMED_UNIT ( * ) SI_UNIT ( $, .STERADIAN. ) SOLID_ANGLE_UNIT ( ) );
#163 = DATE_TIME_ROLE ( 'classification_date' ) ;
#164 = UNCERTAINTY_MEASURE_WITH_UNIT (LENGTH_MEASURE( 1.000000000000000100E-005 ), #156, 'distance_accuracy_value', 'NONE');
#165 = DIRECTION ( 'NONE',  ( -6.938893903907228400E-017, 1.000000000000000000, -0.0000000000000000000 ) ) ;
#166 = PERSON_AND_ORGANIZATION_ROLE ( 'classification_officer' ) ;
#167 = SECURITY_CLASSIFICATION_LEVEL ( 'unclassified' ) ;
#168 =( NAMED_UNIT ( * ) PLANE_ANGLE_UNIT ( ) SI_UNIT ( $, .RADIAN. ) );
#169 = PERSON_AND_ORGANIZATION_ROLE ( 'design_supplier' ) ;
#170 = COORDINATED_UNIVERSAL_TIME_OFFSET ( 7, 0, .BEHIND. ) ;
#171 = LINE ( 'NONE', #134, #126 ) ;
#172 = LOCAL_TIME ( 13, 26, 24.00000000000000000, #186 ) ;
#173 = ADVANCED_FACE ( 'NONE', ( #86 ), #8, .F. ) ;
#174 = LINE ( 'NONE', #216, #87 ) ;
#175 = ORIENTED_EDGE ( 'NONE', *, *, #214, .T. ) ;
#176 = ADVANCED_FACE ( 'NONE', ( #193 ), #181, .F. ) ;
#177 = PRODUCT_DEFINITION_SHAPE ( 'NONE', 'NONE',  #59 ) ;
#178 = CARTESIAN_POINT ( 'NONE',  ( -24.99999999999999300, -25.00000000000000700, 0.0000000000000000000 ) ) ;
#179 = DIRECTION ( 'NONE',  ( 6.938893903907228400E-017, -1.000000000000000000, 0.0000000000000000000 ) ) ;
#180 = ORIENTED_EDGE ( 'NONE', *, *, #78, .F. ) ;
#181 = PLANE ( 'NONE',  #151 ) ;
#182 = ADVANCED_FACE ( 'NONE', ( #125 ), #112, .F. ) ;
#183 = ORIENTED_EDGE ( 'NONE', *, *, #133, .F. ) ;
#184 = ORIENTED_EDGE ( 'NONE', *, *, #149, .F. ) ;
#185 = ORIENTED_EDGE ( 'NONE', *, *, #78, .T. ) ;
#186 = COORDINATED_UNIVERSAL_TIME_OFFSET ( 7, 0, .BEHIND. ) ;
#187 = VERTEX_POINT ( 'NONE', #4 ) ;
#188 = ORIENTED_EDGE ( 'NONE', *, *, #228, .F. ) ;
#189 = VECTOR ( 'NONE', #132, 1000.000000000000000 ) ;
#190 = DIRECTION ( 'NONE',  ( -0.0000000000000000000, -0.0000000000000000000, -1.000000000000000000 ) ) ;
#191 = ORIENTED_EDGE ( 'NONE', *, *, #104, .F. ) ;
#192 = DIRECTION ( 'NONE',  ( 6.938893903907228400E-017, -1.000000000000000000, 0.0000000000000000000 ) ) ;
#193 = FACE_OUTER_BOUND ( 'NONE', #199, .T. ) ;
#194 = CLOSED_SHELL ( 'NONE', ( #182, #176, #173, #71, #69, #120 ) ) ;
#195 = VERTEX_POINT ( 'NONE', #60 ) ;
#196 = ORIENTED_EDGE ( 'NONE', *, *, #142, .F. ) ;
#197 = ORIENTED_EDGE ( 'NONE', *, *, #206, .F. ) ;
#198 = ORIENTED_EDGE ( 'NONE', *, *, #117, .F. ) ;
#199 = EDGE_LOOP ( 'NONE', ( #231, #14, #184, #96 ) ) ;
#200 = APPLICATION_CONTEXT ( 'configuration controlled 3d designs of mechanical parts and assemblies' ) ;
#201 = DIRECTION ( 'NONE',  ( -1.000000000000000000, -0.0000000000000000000, -0.0000000000000000000 ) ) ;
#202 = VERTEX_POINT ( 'NONE', #144 ) ;
#203 = ORIENTED_EDGE ( 'NONE', *, *, #142, .T. ) ;
#204 = VERTEX_POINT ( 'NONE', #18 ) ;
#205 = DIRECTION ( 'NONE',  ( 1.000000000000000000, 0.0000000000000000000, 0.0000000000000000000 ) ) ;
#206 = EDGE_CURVE ( 'NONE', #63, #204, #109, .T. ) ;
#207 = ADVANCED_BREP_SHAPE_REPRESENTATION ( 'step_35946', ( #114, #64 ), #95 ) ;
#208 = CARTESIAN_POINT ( 'NONE',  ( -24.99999999999999600, 24.99999999999999300, 1.000000000000000000 ) ) ;
#209 = VERTEX_POINT ( 'NONE', #90 ) ;
#210 = CARTESIAN_POINT ( 'NONE',  ( -24.99999999999999300, -25.00000000000000700, 1.000000000000000000 ) ) ;
#211 = APPLICATION_PROTOCOL_DEFINITION ( 'international standard', 'config_control_design', 1994, #218 ) ;
#212 = LINE ( 'NONE', #88, #223 ) ;
#213 = ORIENTED_EDGE ( 'NONE', *, *, #206, .T. ) ;
#214 = EDGE_CURVE ( 'NONE', #187, #159, #118, .T. ) ;
#215 = EDGE_CURVE ( 'NONE', #187, #123, #58, .T. ) ;
#216 = CARTESIAN_POINT ( 'NONE',  ( 25.00000000000000000, 24.99999999999999300, 0.0000000000000000000 ) ) ;
#217 = DIRECTION ( 'NONE',  ( 1.000000000000000000, 0.0000000000000000000, 0.0000000000000000000 ) ) ;
#218 = APPLICATION_CONTEXT ( 'configuration controlled 3d designs of mechanical parts and assemblies' ) ;
#219 = PERSON_AND_ORGANIZATION_ROLE ( 'design_owner' ) ;
#220 = ORIENTED_EDGE ( 'NONE', *, *, #104, .T. ) ;
#221 = EDGE_LOOP ( 'NONE', ( #198, #183, #180, #188 ) ) ;
#222 = VECTOR ( 'NONE', #165, 1000.000000000000000 ) ;
#223 = VECTOR ( 'NONE', #100, 1000.000000000000000 ) ;
#224 = MECHANICAL_CONTEXT ( 'NONE', #200, 'mechanical' ) ;
#225 = DIRECTION ( 'NONE',  ( 1.000000000000000000, 0.0000000000000000000, 0.0000000000000000000 ) ) ;
#226 = DIRECTION ( 'NONE',  ( 0.0000000000000000000, -0.0000000000000000000, 1.000000000000000000 ) ) ;
#227 = EDGE_LOOP ( 'NONE', ( #175, #81, #203, #220 ) ) ;
#228 = EDGE_CURVE ( 'NONE', #195, #209, #108, .T. ) ;
#229 = PLANE ( 'NONE',  #237 ) ;
#230 = PERSON ( 'UNSPECIFIED', 'UNSPECIFIED', 'UNSPECIFIED', ('UNSPECIFIED'), ('UNSPECIFIED'), ('UNSPECIFIED') ) ;
#231 = ORIENTED_EDGE ( 'NONE', *, *, #228, .T. ) ;
#232 = ORIENTED_EDGE ( 'NONE', *, *, #215, .F. ) ;
#233 = AXIS2_PLACEMENT_3D ( 'NONE', #208, #12, #150 ) ;
#234 = EDGE_CURVE ( 'NONE', #202, #209, #212, .T. ) ;
#235 = ORGANIZATION ( 'UNSPECIFIED', 'UNSPECIFIED', '' ) ;
#236 = DIRECTION ( 'NONE',  ( -6.938893903907228400E-017, 1.000000000000000000, 0.0000000000000000000 ) ) ;
#237 = AXIS2_PLACEMENT_3D ( 'NONE', #23, #135, #217 ) ;
ENDSEC;
END-ISO-10303-21;
