ISO-10303-21;
HEADER;
FILE_DESCRIPTION (( 'STEP AP203' ),
    '1' );
FILE_NAME ('Web Model 43817_43817.step',
    '2017-04-10T17:30:11',
    ( '' ),
    ( '' ),
    'SwSTEP 2.0',
    'SolidWorks 2016',
    '' );
FILE_SCHEMA (( 'CONFIG_CONTROL_DESIGN' ));
ENDSEC;

DATA;
#1 = APPROVAL_PERSON_ORGANIZATION ( #166, #139, #7 ) ;
#2 = ORIENTED_EDGE ( 'NONE', *, *, #87, .T. ) ;
#3 = CARTESIAN_POINT ( 'NONE',  ( 0.0000000000000000000, 0.0000000000000000000, 0.0000000000000000000 ) ) ;
#4 = CALENDAR_DATE ( 2017, 10, 4 ) ;
#5 = EDGE_CURVE ( 'NONE', #57, #71, #14, .T. ) ;
#6 = PERSON_AND_ORGANIZATION ( #55, #82 ) ;
#7 = APPROVAL_ROLE ( '' ) ;
#8 = EDGE_CURVE ( 'NONE', #57, #30, #99, .T. ) ;
#9 =( NAMED_UNIT ( * ) SI_UNIT ( $, .STERADIAN. ) SOLID_ANGLE_UNIT ( ) );
#10 = DIRECTION ( 'NONE',  ( -0.0000000000000000000, -0.0000000000000000000, 1.000000000000000000 ) ) ;
#11 = APPROVAL_ROLE ( '' ) ;
#12 = PERSON_AND_ORGANIZATION_ROLE ( 'design_owner' ) ;
#13 = DIRECTION ( 'NONE',  ( 1.000000000000000000, 0.0000000000000000000, 0.0000000000000000000 ) ) ;
#14 = LINE ( 'NONE', #68, #141 ) ;
#15 = CARTESIAN_POINT ( 'NONE',  ( 0.0000000000000000000, 0.0000000000000000000, 0.5000000000000000000 ) ) ;
#16 = APPROVAL ( #110, 'UNSPECIFIED' ) ;
#17 = PERSON_AND_ORGANIZATION_ROLE ( 'design_supplier' ) ;
#18 = DESIGN_CONTEXT ( 'detailed design', #26, 'design' ) ;
#19 = EDGE_LOOP ( 'NONE', ( #124, #75 ) ) ;
#20 = LOCAL_TIME ( 13, 30, 11.00000000000000000, #119 ) ;
#21 = ORIENTED_EDGE ( 'NONE', *, *, #87, .F. ) ;
#22 = CC_DESIGN_PERSON_AND_ORGANIZATION_ASSIGNMENT ( #116, #175, ( #130 ) ) ;
#23 = ORIENTED_EDGE ( 'NONE', *, *, #5, .T. ) ;
#24 = LOCAL_TIME ( 13, 30, 11.00000000000000000, #109 ) ;
#25 = CYLINDRICAL_SURFACE ( 'NONE', #47, 12.50000000000000000 ) ;
#26 = APPLICATION_CONTEXT ( 'configuration controlled 3d designs of mechanical parts and assemblies' ) ;
#27 = MECHANICAL_CONTEXT ( 'NONE', #167, 'mechanical' ) ;
#28 = DIRECTION ( 'NONE',  ( 0.0000000000000000000, -0.0000000000000000000, 1.000000000000000000 ) ) ;
#29 = COORDINATED_UNIVERSAL_TIME_OFFSET ( 5, 0, .BEHIND. ) ;
#30 = VERTEX_POINT ( 'NONE', #33 ) ;
#31 = DATE_AND_TIME ( #37, #20 ) ;
#32 = DIRECTION ( 'NONE',  ( -0.0000000000000000000, -0.0000000000000000000, 1.000000000000000000 ) ) ;
#33 = CARTESIAN_POINT ( 'NONE',  ( 12.50000000000000000, 0.0000000000000000000, -0.5000000000000000000 ) ) ;
#34 = PERSON_AND_ORGANIZATION ( #55, #82 ) ;
#35 = DIRECTION ( 'NONE',  ( 1.000000000000000000, 0.0000000000000000000, 0.0000000000000000000 ) ) ;
#36 = SHAPE_DEFINITION_REPRESENTATION ( #84, #140 ) ;
#37 = CALENDAR_DATE ( 2017, 10, 4 ) ;
#38 = ORIENTED_EDGE ( 'NONE', *, *, #67, .F. ) ;
#39 = ORIENTED_EDGE ( 'NONE', *, *, #5, .F. ) ;
#40 = SECURITY_CLASSIFICATION_LEVEL ( 'unclassified' ) ;
#41 = EDGE_LOOP ( 'NONE', ( #2, #23, #38, #125 ) ) ;
#42 = AXIS2_PLACEMENT_3D ( 'NONE', #3, #70, #95 ) ;
#43 = CARTESIAN_POINT ( 'NONE',  ( -12.50000000000000000, 1.530808498934191500E-015, -0.5000000000000000000 ) ) ;
#44 = CARTESIAN_POINT ( 'NONE',  ( 0.0000000000000000000, 0.0000000000000000000, 0.5000000000000000000 ) ) ;
#45 = AXIS2_PLACEMENT_3D ( 'NONE', #100, #10, #145 ) ;
#46 = CYLINDRICAL_SURFACE ( 'NONE', #127, 12.50000000000000000 ) ;
#47 = AXIS2_PLACEMENT_3D ( 'NONE', #44, #143, #120 ) ;
#48 = DATE_TIME_ROLE ( 'creation_date' ) ;
#49 = APPROVAL_DATE_TIME ( #64, #139 ) ;
#50 = APPROVAL_DATE_TIME ( #31, #16 ) ;
#51 = DATE_TIME_ROLE ( 'classification_date' ) ;
#52 = EDGE_LOOP ( 'NONE', ( #21, #86 ) ) ;
#53 = PERSON_AND_ORGANIZATION_ROLE ( 'classification_officer' ) ;
#54 = APPROVAL_DATE_TIME ( #162, #66 ) ;
#55 = PERSON ( 'UNSPECIFIED', 'UNSPECIFIED', 'UNSPECIFIED', ('UNSPECIFIED'), ('UNSPECIFIED'), ('UNSPECIFIED') ) ;
#56 = APPROVAL_STATUS ( 'not_yet_approved' ) ;
#57 = VERTEX_POINT ( 'NONE', #43 ) ;
#58 = APPROVAL_ROLE ( '' ) ;
#59 = AXIS2_PLACEMENT_3D ( 'NONE', #118, #112, #13 ) ;
#60 = AXIS2_PLACEMENT_3D ( 'NONE', #144, #73, #77 ) ;
#61 =( NAMED_UNIT ( * ) PLANE_ANGLE_UNIT ( ) SI_UNIT ( $, .RADIAN. ) );
#62 = EDGE_LOOP ( 'NONE', ( #39, #103, #134, #69 ) ) ;
#63 = PERSON_AND_ORGANIZATION ( #55, #82 ) ;
#64 = DATE_AND_TIME ( #153, #24 ) ;
#65 = APPROVAL_STATUS ( 'not_yet_approved' ) ;
#66 = APPROVAL ( #65, 'UNSPECIFIED' ) ;
#67 = EDGE_CURVE ( 'NONE', #151, #71, #159, .T. ) ;
#68 = CARTESIAN_POINT ( 'NONE',  ( -12.50000000000000000, 1.530808498934191500E-015, 0.5000000000000000000 ) ) ;
#69 = ORIENTED_EDGE ( 'NONE', *, *, #157, .F. ) ;
#70 = DIRECTION ( 'NONE',  ( 0.0000000000000000000, 0.0000000000000000000, 1.000000000000000000 ) ) ;
#71 = VERTEX_POINT ( 'NONE', #80 ) ;
#72 = CC_DESIGN_APPROVAL ( #16, ( #170 ) ) ;
#73 = DIRECTION ( 'NONE',  ( 0.0000000000000000000, 0.0000000000000000000, -1.000000000000000000 ) ) ;
#74 = CC_DESIGN_DATE_AND_TIME_ASSIGNMENT ( #105, #48, ( #130 ) ) ;
#75 = ORIENTED_EDGE ( 'NONE', *, *, #157, .T. ) ;
#76 = CC_DESIGN_APPROVAL ( #66, ( #149 ) ) ;
#77 = DIRECTION ( 'NONE',  ( -1.000000000000000000, 0.0000000000000000000, -0.0000000000000000000 ) ) ;
#78 = CC_DESIGN_DATE_AND_TIME_ASSIGNMENT ( #138, #51, ( #149 ) ) ;
#79 = DIRECTION ( 'NONE',  ( -0.0000000000000000000, -0.0000000000000000000, 1.000000000000000000 ) ) ;
#80 = CARTESIAN_POINT ( 'NONE',  ( -12.50000000000000000, 1.530808498934191500E-015, 0.5000000000000000000 ) ) ;
#81 = CARTESIAN_POINT ( 'NONE',  ( 0.0000000000000000000, 0.0000000000000000000, -0.5000000000000000000 ) ) ;
#82 = ORGANIZATION ( 'UNSPECIFIED', 'UNSPECIFIED', '' ) ;
#83 = CC_DESIGN_SECURITY_CLASSIFICATION ( #149, ( #170 ) ) ;
#84 = PRODUCT_DEFINITION_SHAPE ( 'NONE', 'NONE',  #130 ) ;
#85 = UNCERTAINTY_MEASURE_WITH_UNIT (LENGTH_MEASURE( 1.000000000000000100E-005 ), #117, 'distance_accuracy_value', 'NONE');
#86 = ORIENTED_EDGE ( 'NONE', *, *, #8, .F. ) ;
#87 = EDGE_CURVE ( 'NONE', #30, #57, #172, .T. ) ;
#88 = DIRECTION ( 'NONE',  ( 1.000000000000000000, 0.0000000000000000000, 0.0000000000000000000 ) ) ;
#89 = AXIS2_PLACEMENT_3D ( 'NONE', #154, #28, #35 ) ;
#90 = DIRECTION ( 'NONE',  ( 1.000000000000000000, 0.0000000000000000000, 0.0000000000000000000 ) ) ;
#91 = COORDINATED_UNIVERSAL_TIME_OFFSET ( 5, 0, .BEHIND. ) ;
#92 = COORDINATED_UNIVERSAL_TIME_OFFSET ( 5, 0, .BEHIND. ) ;
#93 = CIRCLE ( 'NONE', #114, 12.50000000000000000 ) ;
#94 = VECTOR ( 'NONE', #32, 1000.000000000000000 ) ;
#95 = DIRECTION ( 'NONE',  ( 1.000000000000000000, 0.0000000000000000000, 0.0000000000000000000 ) ) ;
#96 = PLANE ( 'NONE',  #60 ) ;
#97 = PRODUCT_RELATED_PRODUCT_CATEGORY ( 'detail', '', ( #142 ) ) ;
#98 = PERSON_AND_ORGANIZATION ( #55, #82 ) ;
#99 = CIRCLE ( 'NONE', #171, 12.50000000000000000 ) ;
#100 = CARTESIAN_POINT ( 'NONE',  ( 0.0000000000000000000, 0.0000000000000000000, -0.5000000000000000000 ) ) ;
#101 = FACE_OUTER_BOUND ( 'NONE', #41, .T. ) ;
#102 = LOCAL_TIME ( 13, 30, 11.00000000000000000, #91 ) ;
#103 = ORIENTED_EDGE ( 'NONE', *, *, #8, .T. ) ;
#104 = PERSON_AND_ORGANIZATION ( #55, #82 ) ;
#105 = DATE_AND_TIME ( #164, #108 ) ;
#106 = ADVANCED_FACE ( 'NONE', ( #132 ), #96, .F. ) ;
#107 = CALENDAR_DATE ( 2017, 10, 4 ) ;
#108 = LOCAL_TIME ( 13, 30, 11.00000000000000000, #92 ) ;
#109 = COORDINATED_UNIVERSAL_TIME_OFFSET ( 5, 0, .BEHIND. ) ;
#110 = APPROVAL_STATUS ( 'not_yet_approved' ) ;
#111 = DIRECTION ( 'NONE',  ( 1.000000000000000000, 0.0000000000000000000, 0.0000000000000000000 ) ) ;
#112 = DIRECTION ( 'NONE',  ( -0.0000000000000000000, -0.0000000000000000000, 1.000000000000000000 ) ) ;
#113 = ADVANCED_FACE ( 'NONE', ( #101 ), #46, .T. ) ;
#114 = AXIS2_PLACEMENT_3D ( 'NONE', #133, #79, #88 ) ;
#115 = ADVANCED_FACE ( 'NONE', ( #147 ), #25, .T. ) ;
#116 = PERSON_AND_ORGANIZATION ( #55, #82 ) ;
#117 =( LENGTH_UNIT ( ) NAMED_UNIT ( * ) SI_UNIT ( .MILLI., .METRE. ) );
#118 = CARTESIAN_POINT ( 'NONE',  ( 0.0000000000000000000, 0.0000000000000000000, 0.5000000000000000000 ) ) ;
#119 = COORDINATED_UNIVERSAL_TIME_OFFSET ( 5, 0, .BEHIND. ) ;
#120 = DIRECTION ( 'NONE',  ( 1.000000000000000000, 0.0000000000000000000, 0.0000000000000000000 ) ) ;
#121 = DIRECTION ( 'NONE',  ( -0.0000000000000000000, -0.0000000000000000000, 1.000000000000000000 ) ) ;
#122 = LOCAL_TIME ( 13, 30, 11.00000000000000000, #29 ) ;
#123 = CARTESIAN_POINT ( 'NONE',  ( 12.50000000000000000, 0.0000000000000000000, 0.5000000000000000000 ) ) ;
#124 = ORIENTED_EDGE ( 'NONE', *, *, #67, .T. ) ;
#125 = ORIENTED_EDGE ( 'NONE', *, *, #174, .F. ) ;
#126 = APPLICATION_PROTOCOL_DEFINITION ( 'international standard', 'config_control_design', 1994, #167 ) ;
#127 = AXIS2_PLACEMENT_3D ( 'NONE', #15, #121, #90 ) ;
#128 = PERSON_AND_ORGANIZATION ( #55, #82 ) ;
#129 = APPROVAL_PERSON_ORGANIZATION ( #34, #16, #58 ) ;
#130 = PRODUCT_DEFINITION ( 'UNKNOWN', '', #170, #18 ) ;
#131 = FACE_OUTER_BOUND ( 'NONE', #52, .T. ) ;
#132 = FACE_OUTER_BOUND ( 'NONE', #19, .T. ) ;
#133 = CARTESIAN_POINT ( 'NONE',  ( 0.0000000000000000000, 0.0000000000000000000, 0.5000000000000000000 ) ) ;
#134 = ORIENTED_EDGE ( 'NONE', *, *, #174, .T. ) ;
#135 = CC_DESIGN_PERSON_AND_ORGANIZATION_ASSIGNMENT ( #128, #53, ( #149 ) ) ;
#136 =( GEOMETRIC_REPRESENTATION_CONTEXT ( 3 ) GLOBAL_UNCERTAINTY_ASSIGNED_CONTEXT ( ( #85 ) ) GLOBAL_UNIT_ASSIGNED_CONTEXT ( ( #117, #61, #9 ) ) REPRESENTATION_CONTEXT ( 'NONE', 'WORKASPACE' ) );
#137 = LINE ( 'NONE', #123, #94 ) ;
#138 = DATE_AND_TIME ( #4, #102 ) ;
#139 = APPROVAL ( #56, 'UNSPECIFIED' ) ;
#140 = ADVANCED_BREP_SHAPE_REPRESENTATION ( 'Web Model 43817_43817', ( #158, #42 ), #136 ) ;
#141 = VECTOR ( 'NONE', #161, 1000.000000000000000 ) ;
#142 = PRODUCT ( 'Web Model 43817_43817', 'Web Model 43817_43817', '', ( #27 ) ) ;
#143 = DIRECTION ( 'NONE',  ( -0.0000000000000000000, -0.0000000000000000000, 1.000000000000000000 ) ) ;
#144 = CARTESIAN_POINT ( 'NONE',  ( 0.0000000000000000000, 0.0000000000000000000, 0.5000000000000000000 ) ) ;
#145 = DIRECTION ( 'NONE',  ( 1.000000000000000000, 0.0000000000000000000, 0.0000000000000000000 ) ) ;
#146 = ADVANCED_FACE ( 'NONE', ( #131 ), #150, .F. ) ;
#147 = FACE_OUTER_BOUND ( 'NONE', #62, .T. ) ;
#148 = APPLICATION_PROTOCOL_DEFINITION ( 'international standard', 'config_control_design', 1994, #26 ) ;
#149 = SECURITY_CLASSIFICATION ( '', '', #40 ) ;
#150 = PLANE ( 'NONE',  #89 ) ;
#151 = VERTEX_POINT ( 'NONE', #155 ) ;
#152 = CC_DESIGN_PERSON_AND_ORGANIZATION_ASSIGNMENT ( #104, #17, ( #170 ) ) ;
#153 = CALENDAR_DATE ( 2017, 10, 4 ) ;
#154 = CARTESIAN_POINT ( 'NONE',  ( 0.0000000000000000000, 0.0000000000000000000, -0.5000000000000000000 ) ) ;
#155 = CARTESIAN_POINT ( 'NONE',  ( 12.50000000000000000, 0.0000000000000000000, 0.5000000000000000000 ) ) ;
#156 = CC_DESIGN_PERSON_AND_ORGANIZATION_ASSIGNMENT ( #63, #12, ( #142 ) ) ;
#157 = EDGE_CURVE ( 'NONE', #71, #151, #93, .T. ) ;
#158 = MANIFOLD_SOLID_BREP ( 'Revolve2', #173 ) ;
#159 = CIRCLE ( 'NONE', #59, 12.50000000000000000 ) ;
#160 = APPROVAL_PERSON_ORGANIZATION ( #98, #66, #11 ) ;
#161 = DIRECTION ( 'NONE',  ( -0.0000000000000000000, -0.0000000000000000000, 1.000000000000000000 ) ) ;
#162 = DATE_AND_TIME ( #107, #122 ) ;
#163 = CC_DESIGN_PERSON_AND_ORGANIZATION_ASSIGNMENT ( #6, #169, ( #170 ) ) ;
#164 = CALENDAR_DATE ( 2017, 10, 4 ) ;
#165 = CC_DESIGN_APPROVAL ( #139, ( #130 ) ) ;
#166 = PERSON_AND_ORGANIZATION ( #55, #82 ) ;
#167 = APPLICATION_CONTEXT ( 'configuration controlled 3d designs of mechanical parts and assemblies' ) ;
#168 = DIRECTION ( 'NONE',  ( -0.0000000000000000000, -0.0000000000000000000, 1.000000000000000000 ) ) ;
#169 = PERSON_AND_ORGANIZATION_ROLE ( 'creator' ) ;
#170 = PRODUCT_DEFINITION_FORMATION_WITH_SPECIFIED_SOURCE ( 'ANY', '', #142, .NOT_KNOWN. ) ;
#171 = AXIS2_PLACEMENT_3D ( 'NONE', #81, #168, #111 ) ;
#172 = CIRCLE ( 'NONE', #45, 12.50000000000000000 ) ;
#173 = CLOSED_SHELL ( 'NONE', ( #113, #106, #115, #146 ) ) ;
#174 = EDGE_CURVE ( 'NONE', #30, #151, #137, .T. ) ;
#175 = PERSON_AND_ORGANIZATION_ROLE ( 'creator' ) ;
ENDSEC;
END-ISO-10303-21;
