ISO-10303-21;
HEADER;
FILE_DESCRIPTION (( 'STEP AP203' ),
    '1' );
FILE_NAME ('36993_37004.step',
    '2017-09-06T15:27:10',
    ( '' ),
    ( '' ),
    'SwSTEP 2.0',
    'SolidWorks 2016',
    '' );
FILE_SCHEMA (( 'CONFIG_CONTROL_DESIGN' ));
ENDSEC;

DATA;
#1 = APPROVAL_PERSON_ORGANIZATION ( #94, #131, #67 ) ;
#2 = ORIENTED_EDGE ( 'NONE', *, *, #87, .T. ) ;
#3 = AXIS2_PLACEMENT_3D ( 'NONE', #169, #52, #46 ) ;
#4 = PERSON_AND_ORGANIZATION ( #38, #35 ) ;
#5 = LINE ( 'NONE', #12, #140 ) ;
#6 = ORIENTED_EDGE ( 'NONE', *, *, #87, .F. ) ;
#7 = EDGE_CURVE ( 'NONE', #106, #148, #26, .T. ) ;
#8 = ORIENTED_EDGE ( 'NONE', *, *, #132, .F. ) ;
#9 = PERSON_AND_ORGANIZATION_ROLE ( 'design_supplier' ) ;
#10 = CARTESIAN_POINT ( 'NONE',  ( -12.50000000000000000, 0.0000000000000000000, 1.500000000000000000 ) ) ;
#11 = CIRCLE ( 'NONE', #97, 12.50000000000000000 ) ;
#12 = CARTESIAN_POINT ( 'NONE',  ( 12.50000000000000000, 1.530808498934191500E-015, 1.500000000000000000 ) ) ;
#13 = CALENDAR_DATE ( 2017, 6, 9 ) ;
#14 = LOCAL_TIME ( 11, 27, 10.00000000000000000, #15 ) ;
#15 = COORDINATED_UNIVERSAL_TIME_OFFSET ( 5, 0, .BEHIND. ) ;
#16 = CIRCLE ( 'NONE', #51, 12.50000000000000000 ) ;
#17 = COORDINATED_UNIVERSAL_TIME_OFFSET ( 5, 0, .BEHIND. ) ;
#18 = ORIENTED_EDGE ( 'NONE', *, *, #123, .F. ) ;
#19 = DIRECTION ( 'NONE',  ( -1.000000000000000000, 0.0000000000000000000, 0.0000000000000000000 ) ) ;
#20 = DATE_TIME_ROLE ( 'creation_date' ) ;
#21 = EDGE_CURVE ( 'NONE', #106, #127, #155, .T. ) ;
#22 = PERSON_AND_ORGANIZATION ( #38, #35 ) ;
#23 = ORIENTED_EDGE ( 'NONE', *, *, #132, .T. ) ;
#24 = AXIS2_PLACEMENT_3D ( 'NONE', #112, #96, #70 ) ;
#25 = PERSON_AND_ORGANIZATION ( #38, #35 ) ;
#26 = CIRCLE ( 'NONE', #27, 12.50000000000000000 ) ;
#27 = AXIS2_PLACEMENT_3D ( 'NONE', #172, #55, #145 ) ;
#28 = PERSON_AND_ORGANIZATION_ROLE ( 'creator' ) ;
#29 = EDGE_LOOP ( 'NONE', ( #153, #6 ) ) ;
#30 = DIRECTION ( 'NONE',  ( 1.000000000000000000, 0.0000000000000000000, -0.0000000000000000000 ) ) ;
#31 = CARTESIAN_POINT ( 'NONE',  ( 0.0000000000000000000, 0.0000000000000000000, -1.500000000000000000 ) ) ;
#32 = DATE_TIME_ROLE ( 'classification_date' ) ;
#33 = DIRECTION ( 'NONE',  ( 1.000000000000000000, 0.0000000000000000000, 0.0000000000000000000 ) ) ;
#34 = PERSON_AND_ORGANIZATION ( #38, #35 ) ;
#35 = ORGANIZATION ( 'UNSPECIFIED', 'UNSPECIFIED', '' ) ;
#36 = CIRCLE ( 'NONE', #79, 12.50000000000000000 ) ;
#37 = AXIS2_PLACEMENT_3D ( 'NONE', #101, #129, #19 ) ;
#38 = PERSON ( 'UNSPECIFIED', 'UNSPECIFIED', 'UNSPECIFIED', ('UNSPECIFIED'), ('UNSPECIFIED'), ('UNSPECIFIED') ) ;
#39 = CC_DESIGN_PERSON_AND_ORGANIZATION_ASSIGNMENT ( #130, #28, ( #56 ) ) ;
#40 = LOCAL_TIME ( 11, 27, 10.00000000000000000, #168 ) ;
#41 = ORIENTED_EDGE ( 'NONE', *, *, #123, .T. ) ;
#42 =( NAMED_UNIT ( * ) SI_UNIT ( $, .STERADIAN. ) SOLID_ANGLE_UNIT ( ) );
#43 = DIRECTION ( 'NONE',  ( 1.000000000000000000, 0.0000000000000000000, 0.0000000000000000000 ) ) ;
#44 = DATE_AND_TIME ( #105, #47 ) ;
#45 = DIRECTION ( 'NONE',  ( 1.000000000000000000, 0.0000000000000000000, 0.0000000000000000000 ) ) ;
#46 = DIRECTION ( 'NONE',  ( 1.000000000000000000, 0.0000000000000000000, -0.0000000000000000000 ) ) ;
#47 = LOCAL_TIME ( 11, 27, 10.00000000000000000, #64 ) ;
#48 = APPROVAL ( #126, 'UNSPECIFIED' ) ;
#49 = EDGE_LOOP ( 'NONE', ( #111, #41 ) ) ;
#50 = CC_DESIGN_PERSON_AND_ORGANIZATION_ASSIGNMENT ( #25, #68, ( #124 ) ) ;
#51 = AXIS2_PLACEMENT_3D ( 'NONE', #161, #102, #45 ) ;
#52 = DIRECTION ( 'NONE',  ( 0.0000000000000000000, 0.0000000000000000000, 1.000000000000000000 ) ) ;
#53 = APPLICATION_PROTOCOL_DEFINITION ( 'international standard', 'config_control_design', 1994, #57 ) ;
#54 = CALENDAR_DATE ( 2017, 6, 9 ) ;
#55 = DIRECTION ( 'NONE',  ( 0.0000000000000000000, 0.0000000000000000000, 1.000000000000000000 ) ) ;
#56 = PRODUCT_DEFINITION_FORMATION_WITH_SPECIFIED_SOURCE ( 'ANY', '', #137, .NOT_KNOWN. ) ;
#57 = APPLICATION_CONTEXT ( 'configuration controlled 3d designs of mechanical parts and assemblies' ) ;
#58 = DIRECTION ( 'NONE',  ( -0.0000000000000000000, -0.0000000000000000000, -1.000000000000000000 ) ) ;
#59 = COORDINATED_UNIVERSAL_TIME_OFFSET ( 5, 0, .BEHIND. ) ;
#60 = CC_DESIGN_PERSON_AND_ORGANIZATION_ASSIGNMENT ( #34, #160, ( #137 ) ) ;
#61 = DATE_AND_TIME ( #154, #139 ) ;
#62 = SECURITY_CLASSIFICATION ( '', '', #113 ) ;
#63 = VECTOR ( 'NONE', #58, 1000.000000000000000 ) ;
#64 = COORDINATED_UNIVERSAL_TIME_OFFSET ( 5, 0, .BEHIND. ) ;
#65 = CC_DESIGN_APPROVAL ( #131, ( #124 ) ) ;
#66 = ORIENTED_EDGE ( 'NONE', *, *, #21, .T. ) ;
#67 = APPROVAL_ROLE ( '' ) ;
#68 = PERSON_AND_ORGANIZATION_ROLE ( 'creator' ) ;
#69 = FACE_OUTER_BOUND ( 'NONE', #134, .T. ) ;
#70 = DIRECTION ( 'NONE',  ( 1.000000000000000000, 0.0000000000000000000, 0.0000000000000000000 ) ) ;
#71 = CARTESIAN_POINT ( 'NONE',  ( -12.50000000000000000, 0.0000000000000000000, 1.500000000000000000 ) ) ;
#72 =( LENGTH_UNIT ( ) NAMED_UNIT ( * ) SI_UNIT ( .MILLI., .METRE. ) );
#73 = EDGE_LOOP ( 'NONE', ( #8, #117, #66, #122 ) ) ;
#74 = CYLINDRICAL_SURFACE ( 'NONE', #108, 12.50000000000000000 ) ;
#75 = CC_DESIGN_PERSON_AND_ORGANIZATION_ASSIGNMENT ( #104, #80, ( #62 ) ) ;
#76 = APPROVAL_DATE_TIME ( #61, #48 ) ;
#77 = CLOSED_SHELL ( 'NONE', ( #89, #86, #128, #165 ) ) ;
#78 = CALENDAR_DATE ( 2017, 6, 9 ) ;
#79 = AXIS2_PLACEMENT_3D ( 'NONE', #114, #99, #33 ) ;
#80 = PERSON_AND_ORGANIZATION_ROLE ( 'classification_officer' ) ;
#81 = APPROVAL_ROLE ( '' ) ;
#82 = FACE_OUTER_BOUND ( 'NONE', #29, .T. ) ;
#83 = CC_DESIGN_APPROVAL ( #107, ( #62 ) ) ;
#84 =( NAMED_UNIT ( * ) PLANE_ANGLE_UNIT ( ) SI_UNIT ( $, .RADIAN. ) );
#85 = DIRECTION ( 'NONE',  ( -1.000000000000000000, 0.0000000000000000000, 0.0000000000000000000 ) ) ;
#86 = ADVANCED_FACE ( 'NONE', ( #90 ), #166, .T. ) ;
#87 = EDGE_CURVE ( 'NONE', #135, #127, #16, .T. ) ;
#88 = DATE_AND_TIME ( #78, #14 ) ;
#89 = ADVANCED_FACE ( 'NONE', ( #69 ), #74, .T. ) ;
#90 = FACE_OUTER_BOUND ( 'NONE', #73, .T. ) ;
#91 = CC_DESIGN_SECURITY_CLASSIFICATION ( #62, ( #56 ) ) ;
#92 = LOCAL_TIME ( 11, 27, 10.00000000000000000, #17 ) ;
#93 = PERSON_AND_ORGANIZATION ( #38, #35 ) ;
#94 = PERSON_AND_ORGANIZATION ( #38, #35 ) ;
#95 = CC_DESIGN_PERSON_AND_ORGANIZATION_ASSIGNMENT ( #93, #9, ( #56 ) ) ;
#96 = DIRECTION ( 'NONE',  ( 0.0000000000000000000, 0.0000000000000000000, 1.000000000000000000 ) ) ;
#97 = AXIS2_PLACEMENT_3D ( 'NONE', #31, #100, #43 ) ;
#98 = DIRECTION ( 'NONE',  ( -0.0000000000000000000, -0.0000000000000000000, -1.000000000000000000 ) ) ;
#99 = DIRECTION ( 'NONE',  ( 0.0000000000000000000, 0.0000000000000000000, 1.000000000000000000 ) ) ;
#100 = DIRECTION ( 'NONE',  ( 0.0000000000000000000, 0.0000000000000000000, 1.000000000000000000 ) ) ;
#101 = CARTESIAN_POINT ( 'NONE',  ( 0.0000000000000000000, 0.0000000000000000000, 1.500000000000000000 ) ) ;
#102 = DIRECTION ( 'NONE',  ( 0.0000000000000000000, 0.0000000000000000000, 1.000000000000000000 ) ) ;
#103 = UNCERTAINTY_MEASURE_WITH_UNIT (LENGTH_MEASURE( 1.000000000000000100E-005 ), #72, 'distance_accuracy_value', 'NONE');
#104 = PERSON_AND_ORGANIZATION ( #38, #35 ) ;
#105 = CALENDAR_DATE ( 2017, 6, 9 ) ;
#106 = VERTEX_POINT ( 'NONE', #10 ) ;
#107 = APPROVAL ( #159, 'UNSPECIFIED' ) ;
#108 = AXIS2_PLACEMENT_3D ( 'NONE', #118, #174, #85 ) ;
#109 = APPROVAL_STATUS ( 'not_yet_approved' ) ;
#110 = APPROVAL_DATE_TIME ( #150, #107 ) ;
#111 = ORIENTED_EDGE ( 'NONE', *, *, #7, .T. ) ;
#112 = CARTESIAN_POINT ( 'NONE',  ( 0.0000000000000000000, 0.0000000000000000000, 0.0000000000000000000 ) ) ;
#113 = SECURITY_CLASSIFICATION_LEVEL ( 'unclassified' ) ;
#114 = CARTESIAN_POINT ( 'NONE',  ( 0.0000000000000000000, 0.0000000000000000000, 1.500000000000000000 ) ) ;
#115 = CC_DESIGN_DATE_AND_TIME_ASSIGNMENT ( #162, #32, ( #62 ) ) ;
#116 = PLANE ( 'NONE',  #151 ) ;
#117 = ORIENTED_EDGE ( 'NONE', *, *, #7, .F. ) ;
#118 = CARTESIAN_POINT ( 'NONE',  ( 0.0000000000000000000, 0.0000000000000000000, 1.500000000000000000 ) ) ;
#119 = APPROVAL_PERSON_ORGANIZATION ( #4, #48, #81 ) ;
#120 = FACE_OUTER_BOUND ( 'NONE', #49, .T. ) ;
#121 = PRODUCT_DEFINITION_SHAPE ( 'NONE', 'NONE',  #124 ) ;
#122 = ORIENTED_EDGE ( 'NONE', *, *, #147, .T. ) ;
#123 = EDGE_CURVE ( 'NONE', #148, #106, #36, .T. ) ;
#124 = PRODUCT_DEFINITION ( 'UNKNOWN', '', #56, #163 ) ;
#125 = DIRECTION ( 'NONE',  ( 0.0000000000000000000, 0.0000000000000000000, 1.000000000000000000 ) ) ;
#126 = APPROVAL_STATUS ( 'not_yet_approved' ) ;
#127 = VERTEX_POINT ( 'NONE', #141 ) ;
#128 = ADVANCED_FACE ( 'NONE', ( #120 ), #116, .T. ) ;
#129 = DIRECTION ( 'NONE',  ( -0.0000000000000000000, -0.0000000000000000000, -1.000000000000000000 ) ) ;
#130 = PERSON_AND_ORGANIZATION ( #38, #35 ) ;
#131 = APPROVAL ( #109, 'UNSPECIFIED' ) ;
#132 = EDGE_CURVE ( 'NONE', #148, #135, #5, .T. ) ;
#133 = APPROVAL_DATE_TIME ( #88, #131 ) ;
#134 = EDGE_LOOP ( 'NONE', ( #18, #23, #2, #152 ) ) ;
#135 = VERTEX_POINT ( 'NONE', #138 ) ;
#136 = ADVANCED_BREP_SHAPE_REPRESENTATION ( '36993_37004', ( #149, #24 ), #164 ) ;
#137 = PRODUCT ( '36993_37004', '36993_37004', '', ( #142 ) ) ;
#138 = CARTESIAN_POINT ( 'NONE',  ( 12.50000000000000000, 1.530808498934191500E-015, -1.500000000000000000 ) ) ;
#139 = LOCAL_TIME ( 11, 27, 10.00000000000000000, #59 ) ;
#140 = VECTOR ( 'NONE', #98, 1000.000000000000000 ) ;
#141 = CARTESIAN_POINT ( 'NONE',  ( -12.50000000000000000, 0.0000000000000000000, -1.500000000000000000 ) ) ;
#142 = MECHANICAL_CONTEXT ( 'NONE', #57, 'mechanical' ) ;
#143 = CC_DESIGN_DATE_AND_TIME_ASSIGNMENT ( #44, #20, ( #124 ) ) ;
#144 = APPLICATION_PROTOCOL_DEFINITION ( 'international standard', 'config_control_design', 1994, #171 ) ;
#145 = DIRECTION ( 'NONE',  ( 1.000000000000000000, 0.0000000000000000000, 0.0000000000000000000 ) ) ;
#146 = SHAPE_DEFINITION_REPRESENTATION ( #121, #136 ) ;
#147 = EDGE_CURVE ( 'NONE', #127, #135, #11, .T. ) ;
#148 = VERTEX_POINT ( 'NONE', #173 ) ;
#149 = MANIFOLD_SOLID_BREP ( 'Boss-Extrude1', #77 ) ;
#150 = DATE_AND_TIME ( #13, #92 ) ;
#151 = AXIS2_PLACEMENT_3D ( 'NONE', #170, #125, #30 ) ;
#152 = ORIENTED_EDGE ( 'NONE', *, *, #21, .F. ) ;
#153 = ORIENTED_EDGE ( 'NONE', *, *, #147, .F. ) ;
#154 = CALENDAR_DATE ( 2017, 6, 9 ) ;
#155 = LINE ( 'NONE', #71, #63 ) ;
#156 = PLANE ( 'NONE',  #3 ) ;
#157 = CC_DESIGN_APPROVAL ( #48, ( #56 ) ) ;
#158 = APPROVAL_ROLE ( '' ) ;
#159 = APPROVAL_STATUS ( 'not_yet_approved' ) ;
#160 = PERSON_AND_ORGANIZATION_ROLE ( 'design_owner' ) ;
#161 = CARTESIAN_POINT ( 'NONE',  ( 0.0000000000000000000, 0.0000000000000000000, -1.500000000000000000 ) ) ;
#162 = DATE_AND_TIME ( #54, #40 ) ;
#163 = DESIGN_CONTEXT ( 'detailed design', #171, 'design' ) ;
#164 =( GEOMETRIC_REPRESENTATION_CONTEXT ( 3 ) GLOBAL_UNCERTAINTY_ASSIGNED_CONTEXT ( ( #103 ) ) GLOBAL_UNIT_ASSIGNED_CONTEXT ( ( #72, #84, #42 ) ) REPRESENTATION_CONTEXT ( 'NONE', 'WORKASPACE' ) );
#165 = ADVANCED_FACE ( 'NONE', ( #82 ), #156, .F. ) ;
#166 = CYLINDRICAL_SURFACE ( 'NONE', #37, 12.50000000000000000 ) ;
#167 = PRODUCT_RELATED_PRODUCT_CATEGORY ( 'detail', '', ( #137 ) ) ;
#168 = COORDINATED_UNIVERSAL_TIME_OFFSET ( 5, 0, .BEHIND. ) ;
#169 = CARTESIAN_POINT ( 'NONE',  ( 0.0000000000000000000, 0.0000000000000000000, -1.500000000000000000 ) ) ;
#170 = CARTESIAN_POINT ( 'NONE',  ( 0.0000000000000000000, 0.0000000000000000000, 1.500000000000000000 ) ) ;
#171 = APPLICATION_CONTEXT ( 'configuration controlled 3d designs of mechanical parts and assemblies' ) ;
#172 = CARTESIAN_POINT ( 'NONE',  ( 0.0000000000000000000, 0.0000000000000000000, 1.500000000000000000 ) ) ;
#173 = CARTESIAN_POINT ( 'NONE',  ( 12.50000000000000000, 1.530808498934191500E-015, 1.500000000000000000 ) ) ;
#174 = DIRECTION ( 'NONE',  ( -0.0000000000000000000, -0.0000000000000000000, -1.000000000000000000 ) ) ;
#175 = APPROVAL_PERSON_ORGANIZATION ( #22, #107, #158 ) ;
ENDSEC;
END-ISO-10303-21;
