ISO-10303-21;
HEADER;
FILE_DESCRIPTION (( 'STEP AP203' ),
    '1' );
FILE_NAME ('Web Model 88232_88234.step',
    '2019-05-20T15:26:46',
    ( '' ),
    ( '' ),
    'SwSTEP 2.0',
    'SolidWorks 2018',
    '' );
FILE_SCHEMA (( 'CONFIG_CONTROL_DESIGN' ));
ENDSEC;

DATA;
#1 = ADVANCED_FACE ( 'NONE', ( #131 ), #184, .F. ) ;
#2 = PERSON_AND_ORGANIZATION ( #162, #133 ) ;
#3 = LINE ( 'NONE', #261, #151 ) ;
#4 = AXIS2_PLACEMENT_3D ( 'NONE', #282, #13, #10 ) ;
#5 = CC_DESIGN_PERSON_AND_ORGANIZATION_ASSIGNMENT ( #34, #246, ( #89 ) ) ;
#6 = LINE ( 'NONE', #194, #253 ) ;
#7 = ORIENTED_EDGE ( 'NONE', *, *, #59, .T. ) ;
#8 = EDGE_CURVE ( 'NONE', #319, #14, #58, .T. ) ;
#9 = LOCAL_TIME ( 11, 26, 46.00000000000000000, #83 ) ;
#10 = DIRECTION ( 'NONE',  ( -0.7071067811865474617, 0.7071067811865474617, 0.0000000000000000000 ) ) ;
#11 = VECTOR ( 'NONE', #290, 1000.000000000000114 ) ;
#12 = ORIENTED_EDGE ( 'NONE', *, *, #309, .F. ) ;
#13 = DIRECTION ( 'NONE',  ( 0.7071067811865475727, 0.7071067811865475727, -0.0000000000000000000 ) ) ;
#14 = VERTEX_POINT ( 'NONE', #256 ) ;
#15 = CARTESIAN_POINT ( 'NONE',  ( 6.349999999999998757, -6.349999999999998757, -6.349999999999999645 ) ) ;
#16 = DATE_AND_TIME ( #68, #267 ) ;
#17 = PERSON_AND_ORGANIZATION ( #162, #133 ) ;
#18 = CARTESIAN_POINT ( 'NONE',  ( -0.0000000000000000000, 0.0000000000000000000, -6.349999999999999645 ) ) ;
#19 = CC_DESIGN_DATE_AND_TIME_ASSIGNMENT ( #16, #82, ( #301 ) ) ;
#20 = CARTESIAN_POINT ( 'NONE',  ( 0.0000000000000000000, -6.349999999999999645, 6.349999999999999645 ) ) ;
#21 = VECTOR ( 'NONE', #138, 1000.000000000000114 ) ;
#22 = CARTESIAN_POINT ( 'NONE',  ( 0.0000000000000000000, 0.0000000000000000000, -6.349999999999999645 ) ) ;
#23 = CARTESIAN_POINT ( 'NONE',  ( 0.0000000000000000000, 0.0000000000000000000, 6.349999999999999645 ) ) ;
#24 = PLANE ( 'NONE',  #150 ) ;
#25 = APPROVAL_PERSON_ORGANIZATION ( #298, #135, #169 ) ;
#26 = PERSON_AND_ORGANIZATION ( #162, #133 ) ;
#27 = APPLICATION_CONTEXT ( 'configuration controlled 3d designs of mechanical parts and assemblies' ) ;
#28 = FACE_OUTER_BOUND ( 'NONE', #40, .T. ) ;
#29 = LINE ( 'NONE', #41, #171 ) ;
#30 = CC_DESIGN_APPROVAL ( #281, ( #89 ) ) ;
#31 = EDGE_LOOP ( 'NONE', ( #37, #272, #107, #225 ) ) ;
#32 = AXIS2_PLACEMENT_3D ( 'NONE', #160, #252, #38 ) ;
#33 = AXIS2_PLACEMENT_3D ( 'NONE', #164, #316, #190 ) ;
#34 = PERSON_AND_ORGANIZATION ( #162, #133 ) ;
#35 = PLANE ( 'NONE',  #303 ) ;
#36 = LINE ( 'NONE', #20, #200 ) ;
#37 = ORIENTED_EDGE ( 'NONE', *, *, #95, .F. ) ;
#38 = DIRECTION ( 'NONE',  ( 0.0000000000000000000, 0.0000000000000000000, 1.000000000000000000 ) ) ;
#39 = MANIFOLD_SOLID_BREP ( 'Boss-Extrude3', #51 ) ;
#40 = EDGE_LOOP ( 'NONE', ( #280, #233, #88, #215 ) ) ;
#41 = CARTESIAN_POINT ( 'NONE',  ( 0.0000000000000000000, 0.0000000000000000000, 6.349999999999999645 ) ) ;
#42 = ADVANCED_FACE ( 'NONE', ( #310 ), #311, .T. ) ;
#43 =( GEOMETRIC_REPRESENTATION_CONTEXT ( 3 ) GLOBAL_UNCERTAINTY_ASSIGNED_CONTEXT ( ( #102 ) ) GLOBAL_UNIT_ASSIGNED_CONTEXT ( ( #269, #218, #128 ) ) REPRESENTATION_CONTEXT ( 'NONE', 'WORKASPACE' ) );
#44 = PLANE ( 'NONE',  #295 ) ;
#45 = CARTESIAN_POINT ( 'NONE',  ( -6.349999999999999645, -6.349999999999999645, 6.349999999999999645 ) ) ;
#46 = PERSON_AND_ORGANIZATION ( #162, #133 ) ;
#47 = ORIENTED_EDGE ( 'NONE', *, *, #85, .T. ) ;
#48 = DIRECTION ( 'NONE',  ( -0.0000000000000000000, -0.0000000000000000000, -1.000000000000000000 ) ) ;
#49 = APPROVAL_STATUS ( 'not_yet_approved' ) ;
#50 = FACE_OUTER_BOUND ( 'NONE', #183, .T. ) ;
#51 = CLOSED_SHELL ( 'NONE', ( #1, #67, #74, #42, #293 ) ) ;
#52 = DIRECTION ( 'NONE',  ( -0.0000000000000000000, -0.0000000000000000000, -1.000000000000000000 ) ) ;
#53 = APPROVAL_ROLE ( '' ) ;
#54 = APPLICATION_PROTOCOL_DEFINITION ( 'international standard', 'config_control_design', 1994, #195 ) ;
#55 = CC_DESIGN_SECURITY_CLASSIFICATION ( #301, ( #89 ) ) ;
#56 = LINE ( 'NONE', #230, #229 ) ;
#57 = VECTOR ( 'NONE', #186, 1000.000000000000000 ) ;
#58 = LINE ( 'NONE', #206, #137 ) ;
#59 = EDGE_CURVE ( 'NONE', #120, #294, #29, .T. ) ;
#60 = AXIS2_PLACEMENT_3D ( 'NONE', #210, #313, #73 ) ;
#61 = VECTOR ( 'NONE', #191, 1000.000000000000000 ) ;
#62 = ORIENTED_EDGE ( 'NONE', *, *, #95, .T. ) ;
#63 = DIRECTION ( 'NONE',  ( -0.0000000000000000000, -0.0000000000000000000, -1.000000000000000000 ) ) ;
#64 = VECTOR ( 'NONE', #48, 1000.000000000000000 ) ;
#65 = ORIENTED_EDGE ( 'NONE', *, *, #205, .T. ) ;
#66 = CARTESIAN_POINT ( 'NONE',  ( 6.349999999999998757, -6.349999999999998757, 6.349999999999999645 ) ) ;
#67 = ADVANCED_FACE ( 'NONE', ( #50 ), #308, .F. ) ;
#68 = CALENDAR_DATE ( 2019, 20, 5 ) ;
#69 = VECTOR ( 'NONE', #287, 1000.000000000000000 ) ;
#70 = DIRECTION ( 'NONE',  ( 1.000000000000000000, 0.0000000000000000000, 0.0000000000000000000 ) ) ;
#71 = PRODUCT_RELATED_PRODUCT_CATEGORY ( 'detail', '', ( #211 ) ) ;
#72 = PLANE ( 'NONE',  #126 ) ;
#73 = DIRECTION ( 'NONE',  ( 0.0000000000000000000, -0.0000000000000000000, 1.000000000000000000 ) ) ;
#74 = ADVANCED_FACE ( 'NONE', ( #232 ), #35, .T. ) ;
#75 = CARTESIAN_POINT ( 'NONE',  ( 6.349999999999998757, -6.349999999999998757, -6.349999999999999645 ) ) ;
#76 = EDGE_LOOP ( 'NONE', ( #247, #62, #158 ) ) ;
#77 = ORIENTED_EDGE ( 'NONE', *, *, #291, .T. ) ;
#78 = PERSON_AND_ORGANIZATION_ROLE ( 'design_supplier' ) ;
#79 = DIRECTION ( 'NONE',  ( 0.0000000000000000000, 0.0000000000000000000, 1.000000000000000000 ) ) ;
#80 = EDGE_CURVE ( 'NONE', #178, #185, #114, .T. ) ;
#81 = CC_DESIGN_PERSON_AND_ORGANIZATION_ASSIGNMENT ( #2, #78, ( #89 ) ) ;
#82 = DATE_TIME_ROLE ( 'classification_date' ) ;
#83 = COORDINATED_UNIVERSAL_TIME_OFFSET ( 5, 0, .BEHIND. ) ;
#84 = MECHANICAL_CONTEXT ( 'NONE', #27, 'mechanical' ) ;
#85 = EDGE_CURVE ( 'NONE', #294, #179, #56, .T. ) ;
#86 = FACE_OUTER_BOUND ( 'NONE', #155, .T. ) ;
#87 = VECTOR ( 'NONE', #166, 1000.000000000000000 ) ;
#88 = ORIENTED_EDGE ( 'NONE', *, *, #242, .T. ) ;
#89 = PRODUCT_DEFINITION_FORMATION_WITH_SPECIFIED_SOURCE ( 'ANY', '', #211, .NOT_KNOWN. ) ;
#90 = CALENDAR_DATE ( 2019, 20, 5 ) ;
#91 = LINE ( 'NONE', #123, #57 ) ;
#92 = EDGE_LOOP ( 'NONE', ( #7, #47, #219 ) ) ;
#93 = DATE_AND_TIME ( #259, #99 ) ;
#94 = ORIENTED_EDGE ( 'NONE', *, *, #132, .T. ) ;
#95 = EDGE_CURVE ( 'NONE', #14, #185, #181, .T. ) ;
#96 = DIRECTION ( 'NONE',  ( -0.7071067811865474617, 0.7071067811865474617, 0.0000000000000000000 ) ) ;
#97 = PLANE ( 'NONE',  #33 ) ;
#98 = CARTESIAN_POINT ( 'NONE',  ( -6.349999999999999645, -6.349999999999999645, 6.349999999999999645 ) ) ;
#99 = LOCAL_TIME ( 11, 26, 46.00000000000000000, #237 ) ;
#100 = CARTESIAN_POINT ( 'NONE',  ( -0.0000000000000000000, 6.349999999999999645, -6.349999999999999645 ) ) ;
#101 = ORIENTED_EDGE ( 'NONE', *, *, #59, .F. ) ;
#102 = UNCERTAINTY_MEASURE_WITH_UNIT (LENGTH_MEASURE( 1.000000000000000082E-05 ), #269, 'distance_accuracy_value', 'NONE');
#103 = CARTESIAN_POINT ( 'NONE',  ( -6.349999999999998757, 6.349999999999998757, -6.349999999999999645 ) ) ;
#104 = SECURITY_CLASSIFICATION_LEVEL ( 'unclassified' ) ;
#105 = CC_DESIGN_PERSON_AND_ORGANIZATION_ASSIGNMENT ( #46, #243, ( #211 ) ) ;
#106 = CARTESIAN_POINT ( 'NONE',  ( -6.349999999999999645, -6.349999999999999645, -6.349999999999999645 ) ) ;
#107 = ORIENTED_EDGE ( 'NONE', *, *, #254, .T. ) ;
#108 = EDGE_LOOP ( 'NONE', ( #154, #226, #300 ) ) ;
#109 = CARTESIAN_POINT ( 'NONE',  ( 6.349999999999998757, -6.349999999999998757, 6.349999999999999645 ) ) ;
#110 = CARTESIAN_POINT ( 'NONE',  ( -6.349999999999998757, 6.349999999999998757, 6.349999999999999645 ) ) ;
#111 = FACE_OUTER_BOUND ( 'NONE', #314, .T. ) ;
#112 = VERTEX_POINT ( 'NONE', #284 ) ;
#113 = EDGE_CURVE ( 'NONE', #112, #14, #176, .T. ) ;
#114 = LINE ( 'NONE', #66, #152 ) ;
#115 = ORIENTED_EDGE ( 'NONE', *, *, #254, .F. ) ;
#116 = EDGE_CURVE ( 'NONE', #319, #185, #3, .T. ) ;
#117 = LINE ( 'NONE', #146, #61 ) ;
#118 = ORIENTED_EDGE ( 'NONE', *, *, #177, .F. ) ;
#119 = DATE_AND_TIME ( #196, #9 ) ;
#120 = VERTEX_POINT ( 'NONE', #238 ) ;
#121 = DIRECTION ( 'NONE',  ( 0.0000000000000000000, 1.000000000000000000, -0.0000000000000000000 ) ) ;
#122 = ORIENTED_EDGE ( 'NONE', *, *, #144, .T. ) ;
#123 = CARTESIAN_POINT ( 'NONE',  ( -6.349999999999999645, 0.0000000000000000000, 6.349999999999999645 ) ) ;
#124 = DIRECTION ( 'NONE',  ( 1.000000000000000000, 0.0000000000000000000, 0.0000000000000000000 ) ) ;
#125 = LINE ( 'NONE', #100, #213 ) ;
#126 = AXIS2_PLACEMENT_3D ( 'NONE', #168, #241, #96 ) ;
#127 = CARTESIAN_POINT ( 'NONE',  ( 0.0000000000000000000, 0.0000000000000000000, 6.349999999999999645 ) ) ;
#128 =( NAMED_UNIT ( * ) SI_UNIT ( $, .STERADIAN. ) SOLID_ANGLE_UNIT ( ) );
#129 = DATE_AND_TIME ( #249, #203 ) ;
#130 = DIRECTION ( 'NONE',  ( 1.000000000000000000, 0.0000000000000000000, 0.0000000000000000000 ) ) ;
#131 = FACE_OUTER_BOUND ( 'NONE', #283, .T. ) ;
#132 = EDGE_CURVE ( 'NONE', #134, #178, #36, .T. ) ;
#133 = ORGANIZATION ( 'UNSPECIFIED', 'UNSPECIFIED', '' ) ;
#134 = VERTEX_POINT ( 'NONE', #45 ) ;
#135 = APPROVAL ( #266, 'UNSPECIFIED' ) ;
#136 = APPROVAL_DATE_TIME ( #129, #278 ) ;
#137 = VECTOR ( 'NONE', #121, 1000.000000000000000 ) ;
#138 = DIRECTION ( 'NONE',  ( 0.7071067811865474617, -0.7071067811865474617, 0.0000000000000000000 ) ) ;
#139 = APPROVAL_PERSON_ORGANIZATION ( #17, #281, #53 ) ;
#140 = DIRECTION ( 'NONE',  ( 0.7071067811865474617, -0.7071067811865474617, 0.0000000000000000000 ) ) ;
#141 = CARTESIAN_POINT ( 'NONE',  ( 6.349999999999999645, 6.349999999999999645, 6.349999999999999645 ) ) ;
#142 = ADVANCED_FACE ( 'NONE', ( #165 ), #72, .T. ) ;
#143 = CARTESIAN_POINT ( 'NONE',  ( -0.0000000000000000000, 0.0000000000000000000, -6.349999999999999645 ) ) ;
#144 = EDGE_CURVE ( 'NONE', #214, #255, #260, .T. ) ;
#145 = DIRECTION ( 'NONE',  ( -0.0000000000000000000, -0.0000000000000000000, -1.000000000000000000 ) ) ;
#146 = CARTESIAN_POINT ( 'NONE',  ( 0.0000000000000000000, 6.349999999999999645, 6.349999999999999645 ) ) ;
#147 = APPROVAL_ROLE ( '' ) ;
#148 = FACE_OUTER_BOUND ( 'NONE', #76, .T. ) ;
#149 = DIRECTION ( 'NONE',  ( -0.0000000000000000000, 0.0000000000000000000, 1.000000000000000000 ) ) ;
#150 = AXIS2_PLACEMENT_3D ( 'NONE', #23, #149, #130 ) ;
#151 = VECTOR ( 'NONE', #285, 1000.000000000000000 ) ;
#152 = VECTOR ( 'NONE', #63, 1000.000000000000000 ) ;
#153 = MANIFOLD_SOLID_BREP ( 'Boss-Extrude2', #320 ) ;
#154 = ORIENTED_EDGE ( 'NONE', *, *, #144, .F. ) ;
#155 = EDGE_LOOP ( 'NONE', ( #239, #244, #289, #161 ) ) ;
#156 = AXIS2_PLACEMENT_3D ( 'NONE', #296, #170, #174 ) ;
#157 = LINE ( 'NONE', #292, #228 ) ;
#158 = ORIENTED_EDGE ( 'NONE', *, *, #116, .F. ) ;
#159 = CARTESIAN_POINT ( 'NONE',  ( 0.0000000000000000000, 0.0000000000000000000, 6.349999999999999645 ) ) ;
#160 = CARTESIAN_POINT ( 'NONE',  ( 6.349999999999999645, 0.0000000000000000000, 6.349999999999999645 ) ) ;
#161 = ORIENTED_EDGE ( 'NONE', *, *, #197, .T. ) ;
#162 = PERSON ( 'UNSPECIFIED', 'UNSPECIFIED', 'UNSPECIFIED', ('UNSPECIFIED'), ('UNSPECIFIED'), ('UNSPECIFIED') ) ;
#163 = PLANE ( 'NONE',  #60 ) ;
#164 = CARTESIAN_POINT ( 'NONE',  ( -6.349999999999999645, 0.0000000000000000000, 6.349999999999999645 ) ) ;
#165 = FACE_OUTER_BOUND ( 'NONE', #31, .T. ) ;
#166 = DIRECTION ( 'NONE',  ( -0.0000000000000000000, -0.0000000000000000000, -1.000000000000000000 ) ) ;
#167 = VERTEX_POINT ( 'NONE', #288 ) ;
#168 = CARTESIAN_POINT ( 'NONE',  ( 0.0000000000000000000, 0.0000000000000000000, 6.349999999999999645 ) ) ;
#169 = APPROVAL_ROLE ( '' ) ;
#170 = DIRECTION ( 'NONE',  ( -0.0000000000000000000, 0.0000000000000000000, 1.000000000000000000 ) ) ;
#171 = VECTOR ( 'NONE', #208, 1000.000000000000114 ) ;
#172 = ADVANCED_FACE ( 'NONE', ( #148 ), #44, .F. ) ;
#173 = PLANE ( 'NONE',  #156 ) ;
#174 = DIRECTION ( 'NONE',  ( 1.000000000000000000, 0.0000000000000000000, 0.0000000000000000000 ) ) ;
#175 = CC_DESIGN_PERSON_AND_ORGANIZATION_ASSIGNMENT ( #26, #220, ( #263 ) ) ;
#176 = LINE ( 'NONE', #315, #87 ) ;
#177 = EDGE_CURVE ( 'NONE', #214, #167, #125, .T. ) ;
#178 = VERTEX_POINT ( 'NONE', #236 ) ;
#179 = VERTEX_POINT ( 'NONE', #141 ) ;
#180 = DESIGN_CONTEXT ( 'detailed design', #195, 'design' ) ;
#181 = LINE ( 'NONE', #143, #279 ) ;
#182 = LINE ( 'NONE', #127, #11 ) ;
#183 = EDGE_LOOP ( 'NONE', ( #250, #199, #307, #65 ) ) ;
#184 = PLANE ( 'NONE',  #4 ) ;
#185 = VERTEX_POINT ( 'NONE', #75 ) ;
#186 = DIRECTION ( 'NONE',  ( 0.0000000000000000000, 1.000000000000000000, -0.0000000000000000000 ) ) ;
#187 = CC_DESIGN_DATE_AND_TIME_ASSIGNMENT ( #268, #221, ( #263 ) ) ;
#188 = DIRECTION ( 'NONE',  ( 1.000000000000000000, 0.0000000000000000000, 0.0000000000000000000 ) ) ;
#189 = FACE_OUTER_BOUND ( 'NONE', #108, .T. ) ;
#190 = DIRECTION ( 'NONE',  ( 0.0000000000000000000, 0.0000000000000000000, 1.000000000000000000 ) ) ;
#191 = DIRECTION ( 'NONE',  ( 1.000000000000000000, 0.0000000000000000000, 0.0000000000000000000 ) ) ;
#192 = ORIENTED_EDGE ( 'NONE', *, *, #309, .T. ) ;
#193 = CARTESIAN_POINT ( 'NONE',  ( 0.0000000000000000000, 0.0000000000000000000, 0.0000000000000000000 ) ) ;
#194 = CARTESIAN_POINT ( 'NONE',  ( 6.349999999999999645, 6.349999999999999645, 6.349999999999999645 ) ) ;
#195 = APPLICATION_CONTEXT ( 'configuration controlled 3d designs of mechanical parts and assemblies' ) ;
#196 = CALENDAR_DATE ( 2019, 20, 5 ) ;
#197 = EDGE_CURVE ( 'NONE', #134, #319, #222, .T. ) ;
#198 = LINE ( 'NONE', #212, #69 ) ;
#199 = ORIENTED_EDGE ( 'NONE', *, *, #291, .F. ) ;
#200 = VECTOR ( 'NONE', #188, 1000.000000000000000 ) ;
#201 = CC_DESIGN_PERSON_AND_ORGANIZATION_ASSIGNMENT ( #224, #216, ( #301 ) ) ;
#202 = DIRECTION ( 'NONE',  ( 0.0000000000000000000, -0.0000000000000000000, 1.000000000000000000 ) ) ;
#203 = LOCAL_TIME ( 11, 26, 46.00000000000000000, #277 ) ;
#204 = ORIENTED_EDGE ( 'NONE', *, *, #205, .F. ) ;
#205 = EDGE_CURVE ( 'NONE', #294, #255, #198, .T. ) ;
#206 = CARTESIAN_POINT ( 'NONE',  ( -6.349999999999999645, 0.0000000000000000000, -6.349999999999999645 ) ) ;
#207 = DIRECTION ( 'NONE',  ( -0.0000000000000000000, 0.0000000000000000000, 1.000000000000000000 ) ) ;
#208 = DIRECTION ( 'NONE',  ( 0.7071067811865474617, -0.7071067811865474617, 0.0000000000000000000 ) ) ;
#209 = LOCAL_TIME ( 11, 26, 46.00000000000000000, #275 ) ;
#210 = CARTESIAN_POINT ( 'NONE',  ( 0.0000000000000000000, -6.349999999999999645, 6.349999999999999645 ) ) ;
#211 = PRODUCT ( 'Web Model 88232_88234', 'Web Model 88232_88234', '', ( #84 ) ) ;
#212 = CARTESIAN_POINT ( 'NONE',  ( 6.349999999999998757, -6.349999999999998757, 6.349999999999999645 ) ) ;
#213 = VECTOR ( 'NONE', #70, 1000.000000000000000 ) ;
#214 = VERTEX_POINT ( 'NONE', #103 ) ;
#215 = ORIENTED_EDGE ( 'NONE', *, *, #113, .T. ) ;
#216 = PERSON_AND_ORGANIZATION_ROLE ( 'classification_officer' ) ;
#217 = APPLICATION_PROTOCOL_DEFINITION ( 'international standard', 'config_control_design', 1994, #27 ) ;
#218 =( NAMED_UNIT ( * ) PLANE_ANGLE_UNIT ( ) SI_UNIT ( $, .RADIAN. ) );
#219 = ORIENTED_EDGE ( 'NONE', *, *, #273, .F. ) ;
#220 = PERSON_AND_ORGANIZATION_ROLE ( 'creator' ) ;
#221 = DATE_TIME_ROLE ( 'creation_date' ) ;
#222 = LINE ( 'NONE', #98, #64 ) ;
#223 = ORIENTED_EDGE ( 'NONE', *, *, #273, .T. ) ;
#224 = PERSON_AND_ORGANIZATION ( #162, #133 ) ;
#225 = ORIENTED_EDGE ( 'NONE', *, *, #80, .T. ) ;
#226 = ORIENTED_EDGE ( 'NONE', *, *, #177, .T. ) ;
#227 = PRODUCT_DEFINITION_SHAPE ( 'NONE', 'NONE',  #263 ) ;
#228 = VECTOR ( 'NONE', #297, 1000.000000000000000 ) ;
#229 = VECTOR ( 'NONE', #258, 1000.000000000000000 ) ;
#230 = CARTESIAN_POINT ( 'NONE',  ( 6.349999999999999645, 0.0000000000000000000, 6.349999999999999645 ) ) ;
#231 = DIRECTION ( 'NONE',  ( 1.000000000000000000, 0.0000000000000000000, 0.0000000000000000000 ) ) ;
#232 = FACE_OUTER_BOUND ( 'NONE', #265, .T. ) ;
#233 = ORIENTED_EDGE ( 'NONE', *, *, #197, .F. ) ;
#234 = CARTESIAN_POINT ( 'NONE',  ( 0.0000000000000000000, 6.349999999999999645, 6.349999999999999645 ) ) ;
#235 = AXIS2_PLACEMENT_3D ( 'NONE', #159, #207, #231 ) ;
#236 = CARTESIAN_POINT ( 'NONE',  ( 6.349999999999998757, -6.349999999999998757, 6.349999999999999645 ) ) ;
#237 = COORDINATED_UNIVERSAL_TIME_OFFSET ( 5, 0, .BEHIND. ) ;
#238 = CARTESIAN_POINT ( 'NONE',  ( -6.349999999999998757, 6.349999999999998757, 6.349999999999999645 ) ) ;
#239 = ORIENTED_EDGE ( 'NONE', *, *, #116, .T. ) ;
#240 = ADVANCED_FACE ( 'NONE', ( #86 ), #163, .F. ) ;
#241 = DIRECTION ( 'NONE',  ( 0.7071067811865475727, 0.7071067811865475727, -0.0000000000000000000 ) ) ;
#242 = EDGE_CURVE ( 'NONE', #134, #112, #91, .T. ) ;
#243 = PERSON_AND_ORGANIZATION_ROLE ( 'design_owner' ) ;
#244 = ORIENTED_EDGE ( 'NONE', *, *, #80, .F. ) ;
#245 = APPROVAL_DATE_TIME ( #93, #135 ) ;
#246 = PERSON_AND_ORGANIZATION_ROLE ( 'creator' ) ;
#247 = ORIENTED_EDGE ( 'NONE', *, *, #8, .T. ) ;
#248 = CC_DESIGN_APPROVAL ( #135, ( #301 ) ) ;
#249 = CALENDAR_DATE ( 2019, 20, 5 ) ;
#250 = ORIENTED_EDGE ( 'NONE', *, *, #270, .T. ) ;
#251 = LINE ( 'NONE', #110, #306 ) ;
#252 = DIRECTION ( 'NONE',  ( -1.000000000000000000, 0.0000000000000000000, 0.0000000000000000000 ) ) ;
#253 = VECTOR ( 'NONE', #145, 1000.000000000000000 ) ;
#254 = EDGE_CURVE ( 'NONE', #112, #178, #182, .T. ) ;
#255 = VERTEX_POINT ( 'NONE', #15 ) ;
#256 = CARTESIAN_POINT ( 'NONE',  ( -6.349999999999998757, 6.349999999999998757, -6.349999999999999645 ) ) ;
#257 = DIRECTION ( 'NONE',  ( 0.0000000000000000000, 1.000000000000000000, 0.0000000000000000000 ) ) ;
#258 = DIRECTION ( 'NONE',  ( 0.0000000000000000000, 1.000000000000000000, -0.0000000000000000000 ) ) ;
#259 = CALENDAR_DATE ( 2019, 20, 5 ) ;
#260 = LINE ( 'NONE', #18, #21 ) ;
#261 = CARTESIAN_POINT ( 'NONE',  ( 0.0000000000000000000, -6.349999999999999645, -6.349999999999999645 ) ) ;
#262 = ADVANCED_FACE ( 'NONE', ( #28 ), #97, .T. ) ;
#263 = PRODUCT_DEFINITION ( 'UNKNOWN', '', #89, #180 ) ;
#264 = DIRECTION ( 'NONE',  ( -0.0000000000000000000, 0.0000000000000000000, 1.000000000000000000 ) ) ;
#265 = EDGE_LOOP ( 'NONE', ( #118, #12, #223, #77 ) ) ;
#266 = APPROVAL_STATUS ( 'not_yet_approved' ) ;
#267 = LOCAL_TIME ( 11, 26, 46.00000000000000000, #305 ) ;
#268 = DATE_AND_TIME ( #90, #209 ) ;
#269 =( LENGTH_UNIT ( ) NAMED_UNIT ( * ) SI_UNIT ( .MILLI., .METRE. ) );
#270 = EDGE_CURVE ( 'NONE', #255, #167, #157, .T. ) ;
#271 = SHAPE_DEFINITION_REPRESENTATION ( #227, #302 ) ;
#272 = ORIENTED_EDGE ( 'NONE', *, *, #113, .F. ) ;
#273 = EDGE_CURVE ( 'NONE', #120, #179, #117, .T. ) ;
#274 = AXIS2_PLACEMENT_3D ( 'NONE', #193, #79, #321 ) ;
#275 = COORDINATED_UNIVERSAL_TIME_OFFSET ( 5, 0, .BEHIND. ) ;
#276 = APPROVAL_DATE_TIME ( #119, #281 ) ;
#277 = COORDINATED_UNIVERSAL_TIME_OFFSET ( 5, 0, .BEHIND. ) ;
#278 = APPROVAL ( #49, 'UNSPECIFIED' ) ;
#279 = VECTOR ( 'NONE', #140, 1000.000000000000114 ) ;
#280 = ORIENTED_EDGE ( 'NONE', *, *, #8, .F. ) ;
#281 = APPROVAL ( #317, 'UNSPECIFIED' ) ;
#282 = CARTESIAN_POINT ( 'NONE',  ( 0.0000000000000000000, 0.0000000000000000000, 6.349999999999999645 ) ) ;
#283 = EDGE_LOOP ( 'NONE', ( #122, #204, #101, #192 ) ) ;
#284 = CARTESIAN_POINT ( 'NONE',  ( -6.349999999999998757, 6.349999999999998757, 6.349999999999999645 ) ) ;
#285 = DIRECTION ( 'NONE',  ( 1.000000000000000000, 0.0000000000000000000, 0.0000000000000000000 ) ) ;
#286 = CC_DESIGN_APPROVAL ( #278, ( #263 ) ) ;
#287 = DIRECTION ( 'NONE',  ( -0.0000000000000000000, -0.0000000000000000000, -1.000000000000000000 ) ) ;
#288 = CARTESIAN_POINT ( 'NONE',  ( 6.349999999999999645, 6.349999999999999645, -6.349999999999999645 ) ) ;
#289 = ORIENTED_EDGE ( 'NONE', *, *, #132, .F. ) ;
#290 = DIRECTION ( 'NONE',  ( 0.7071067811865474617, -0.7071067811865474617, 0.0000000000000000000 ) ) ;
#291 = EDGE_CURVE ( 'NONE', #179, #167, #6, .T. ) ;
#292 = CARTESIAN_POINT ( 'NONE',  ( 6.349999999999999645, 0.0000000000000000000, -6.349999999999999645 ) ) ;
#293 = ADVANCED_FACE ( 'NONE', ( #189 ), #173, .F. ) ;
#294 = VERTEX_POINT ( 'NONE', #109 ) ;
#295 = AXIS2_PLACEMENT_3D ( 'NONE', #22, #264, #124 ) ;
#296 = CARTESIAN_POINT ( 'NONE',  ( 0.0000000000000000000, 0.0000000000000000000, -6.349999999999999645 ) ) ;
#297 = DIRECTION ( 'NONE',  ( 0.0000000000000000000, 1.000000000000000000, -0.0000000000000000000 ) ) ;
#298 = PERSON_AND_ORGANIZATION ( #162, #133 ) ;
#299 = APPROVAL_PERSON_ORGANIZATION ( #318, #278, #147 ) ;
#300 = ORIENTED_EDGE ( 'NONE', *, *, #270, .F. ) ;
#301 = SECURITY_CLASSIFICATION ( '', '', #104 ) ;
#302 = ADVANCED_BREP_SHAPE_REPRESENTATION ( 'Web Model 88232_88234', ( #153, #39, #274 ), #43 ) ;
#303 = AXIS2_PLACEMENT_3D ( 'NONE', #234, #257, #202 ) ;
#304 = ORIENTED_EDGE ( 'NONE', *, *, #242, .F. ) ;
#305 = COORDINATED_UNIVERSAL_TIME_OFFSET ( 5, 0, .BEHIND. ) ;
#306 = VECTOR ( 'NONE', #52, 1000.000000000000000 ) ;
#307 = ORIENTED_EDGE ( 'NONE', *, *, #85, .F. ) ;
#308 = PLANE ( 'NONE',  #32 ) ;
#309 = EDGE_CURVE ( 'NONE', #120, #214, #251, .T. ) ;
#310 = FACE_OUTER_BOUND ( 'NONE', #92, .T. ) ;
#311 = PLANE ( 'NONE',  #235 ) ;
#312 = ADVANCED_FACE ( 'NONE', ( #111 ), #24, .T. ) ;
#313 = DIRECTION ( 'NONE',  ( 0.0000000000000000000, 1.000000000000000000, 0.0000000000000000000 ) ) ;
#314 = EDGE_LOOP ( 'NONE', ( #304, #94, #115 ) ) ;
#315 = CARTESIAN_POINT ( 'NONE',  ( -6.349999999999998757, 6.349999999999998757, 6.349999999999999645 ) ) ;
#316 = DIRECTION ( 'NONE',  ( -1.000000000000000000, 0.0000000000000000000, 0.0000000000000000000 ) ) ;
#317 = APPROVAL_STATUS ( 'not_yet_approved' ) ;
#318 = PERSON_AND_ORGANIZATION ( #162, #133 ) ;
#319 = VERTEX_POINT ( 'NONE', #106 ) ;
#320 = CLOSED_SHELL ( 'NONE', ( #262, #240, #142, #312, #172 ) ) ;
#321 = DIRECTION ( 'NONE',  ( 1.000000000000000000, 0.0000000000000000000, 0.0000000000000000000 ) ) ;
ENDSEC;
END-ISO-10303-21;
