ISO-10303-21;
HEADER;
FILE_DESCRIPTION (( 'STEP AP203' ),
    '1' );
FILE_NAME ('Web Model 19837_19871.step',
    '2022-04-06T15:07:38',
    ( 'WC' ),
    ( 'Windows Central' ),
    'SwSTEP 2.0',
    'SolidWorks 2021',
    '' );
FILE_SCHEMA (( 'CONFIG_CONTROL_DESIGN' ));
ENDSEC;

DATA;
#1 = CALENDAR_DATE ( 2022, 6, 4 ) ;
#2 = SECURITY_CLASSIFICATION_LEVEL ( 'unclassified' ) ;
#3 = DIRECTION ( 'NONE',  ( -0.000000000000000000, -0.000000000000000000, -1.000000000000000000 ) ) ;
#4 = DIRECTION ( 'NONE',  ( -0.000000000000000000, -0.000000000000000000, -1.000000000000000000 ) ) ;
#5 = DIRECTION ( 'NONE',  ( 0.000000000000000000, 0.000000000000000000, 1.000000000000000000 ) ) ;
#6 = LOCAL_TIME ( 11, 7, 38.00000000000000000, #93 ) ;
#7 =( NAMED_UNIT ( * ) PLANE_ANGLE_UNIT ( ) SI_UNIT ( $, .RADIAN. ) );
#8 = CC_DESIGN_PERSON_AND_ORGANIZATION_ASSIGNMENT ( #103, #164, ( #129 ) ) ;
#9 = CYLINDRICAL_SURFACE ( 'NONE', #36, 12.50000000000000000 ) ;
#10 = CIRCLE ( 'NONE', #169, 12.50000000000000000 ) ;
#11 = EDGE_CURVE ( 'NONE', #29, #14, #10, .T. ) ;
#12 = PERSON_AND_ORGANIZATION ( #138, #38 ) ;
#13 = LOCAL_TIME ( 11, 7, 38.00000000000000000, #40 ) ;
#14 = VERTEX_POINT ( 'NONE', #37 ) ;
#15 = VERTEX_POINT ( 'NONE', #26 ) ;
#16 = ADVANCED_FACE ( 'NONE', ( #28 ), #77, .T. ) ;
#17 = CIRCLE ( 'NONE', #56, 12.50000000000000000 ) ;
#18 = ORIENTED_EDGE ( 'NONE', *, *, #107, .F. ) ;
#19 = PRODUCT_DEFINITION_SHAPE ( 'NONE', 'NONE',  #21 ) ;
#20 =( LENGTH_UNIT ( ) NAMED_UNIT ( * ) SI_UNIT ( .MILLI., .METRE. ) );
#21 = PRODUCT_DEFINITION ( 'UNKNOWN', '', #129, #32 ) ;
#22 = AXIS2_PLACEMENT_3D ( 'NONE', #61, #125, #100 ) ;
#23 = DIRECTION ( 'NONE',  ( 0.000000000000000000, 0.000000000000000000, 1.000000000000000000 ) ) ;
#24 = LOCAL_TIME ( 11, 7, 38.00000000000000000, #171 ) ;
#25 = CALENDAR_DATE ( 2022, 6, 4 ) ;
#26 = CARTESIAN_POINT ( 'NONE',  ( 12.50000000000000000, 1.530808498934191521E-15, 5.000000000000000000 ) ) ;
#27 = EDGE_CURVE ( 'NONE', #14, #29, #87, .T. ) ;
#28 = FACE_OUTER_BOUND ( 'NONE', #95, .T. ) ;
#29 = VERTEX_POINT ( 'NONE', #160 ) ;
#30 = DIRECTION ( 'NONE',  ( 0.000000000000000000, 0.000000000000000000, 1.000000000000000000 ) ) ;
#31 = DIRECTION ( 'NONE',  ( 1.000000000000000000, 0.000000000000000000, -0.000000000000000000 ) ) ;
#32 = DESIGN_CONTEXT ( 'detailed design', #146, 'design' ) ;
#33 = DIRECTION ( 'NONE',  ( 1.000000000000000000, 0.000000000000000000, -0.000000000000000000 ) ) ;
#34 = FACE_OUTER_BOUND ( 'NONE', #41, .T. ) ;
#35 = APPROVAL_STATUS ( 'not_yet_approved' ) ;
#36 = AXIS2_PLACEMENT_3D ( 'NONE', #84, #4, #127 ) ;
#37 = CARTESIAN_POINT ( 'NONE',  ( -12.50000000000000000, 0.000000000000000000, 0.000000000000000000 ) ) ;
#38 = ORGANIZATION ( 'UNSPECIFIED', 'UNSPECIFIED', '' ) ;
#39 = CC_DESIGN_DATE_AND_TIME_ASSIGNMENT ( #141, #118, ( #21 ) ) ;
#40 = COORDINATED_UNIVERSAL_TIME_OFFSET ( 5, 0, .BEHIND. ) ;
#41 = EDGE_LOOP ( 'NONE', ( #98, #123 ) ) ;
#42 = PERSON_AND_ORGANIZATION_ROLE ( 'design_owner' ) ;
#43 = LOCAL_TIME ( 11, 7, 38.00000000000000000, #121 ) ;
#44 = CARTESIAN_POINT ( 'NONE',  ( 0.000000000000000000, 0.000000000000000000, 0.000000000000000000 ) ) ;
#45 = MECHANICAL_CONTEXT ( 'NONE', #88, 'mechanical' ) ;
#46 = PRODUCT ( 'Web Model 19837_19871', 'Web Model 19837_19871', '', ( #45 ) ) ;
#47 = CALENDAR_DATE ( 2022, 6, 4 ) ;
#48 = AXIS2_PLACEMENT_3D ( 'NONE', #157, #23, #31 ) ;
#49 = DATE_AND_TIME ( #1, #6 ) ;
#50 = CC_DESIGN_PERSON_AND_ORGANIZATION_ASSIGNMENT ( #117, #90, ( #129 ) ) ;
#51 =( GEOMETRIC_REPRESENTATION_CONTEXT ( 3 ) GLOBAL_UNCERTAINTY_ASSIGNED_CONTEXT ( ( #126 ) ) GLOBAL_UNIT_ASSIGNED_CONTEXT ( ( #20, #7, #64 ) ) REPRESENTATION_CONTEXT ( 'NONE', 'WORKASPACE' ) );
#52 = ORIENTED_EDGE ( 'NONE', *, *, #70, .F. ) ;
#53 = SHAPE_DEFINITION_REPRESENTATION ( #19, #54 ) ;
#54 = ADVANCED_BREP_SHAPE_REPRESENTATION ( 'Web Model 19837_19871', ( #110, #163 ), #51 ) ;
#55 = AXIS2_PLACEMENT_3D ( 'NONE', #124, #3, #109 ) ;
#56 = AXIS2_PLACEMENT_3D ( 'NONE', #75, #5, #115 ) ;
#57 = ORIENTED_EDGE ( 'NONE', *, *, #79, .F. ) ;
#58 = ORIENTED_EDGE ( 'NONE', *, *, #162, .F. ) ;
#59 = PLANE ( 'NONE',  #69 ) ;
#60 = ADVANCED_FACE ( 'NONE', ( #154 ), #9, .T. ) ;
#61 = CARTESIAN_POINT ( 'NONE',  ( 0.000000000000000000, 0.000000000000000000, 5.000000000000000000 ) ) ;
#62 = APPROVAL_PERSON_ORGANIZATION ( #12, #122, #173 ) ;
#63 = VECTOR ( 'NONE', #74, 1000.000000000000000 ) ;
#64 =( NAMED_UNIT ( * ) SI_UNIT ( $, .STERADIAN. ) SOLID_ANGLE_UNIT ( ) );
#65 = CALENDAR_DATE ( 2022, 6, 4 ) ;
#66 = PRODUCT_RELATED_PRODUCT_CATEGORY ( 'detail', '', ( #46 ) ) ;
#67 = DIRECTION ( 'NONE',  ( 0.000000000000000000, 0.000000000000000000, 1.000000000000000000 ) ) ;
#68 = DATE_AND_TIME ( #47, #24 ) ;
#69 = AXIS2_PLACEMENT_3D ( 'NONE', #111, #99, #33 ) ;
#70 = EDGE_CURVE ( 'NONE', #15, #29, #73, .T. ) ;
#71 = APPLICATION_PROTOCOL_DEFINITION ( 'international standard', 'config_control_design', 1994, #88 ) ;
#72 = PERSON_AND_ORGANIZATION_ROLE ( 'creator' ) ;
#73 = LINE ( 'NONE', #82, #156 ) ;
#74 = DIRECTION ( 'NONE',  ( -0.000000000000000000, -0.000000000000000000, -1.000000000000000000 ) ) ;
#75 = CARTESIAN_POINT ( 'NONE',  ( 0.000000000000000000, 0.000000000000000000, 5.000000000000000000 ) ) ;
#76 = DATE_AND_TIME ( #65, #43 ) ;
#77 = CYLINDRICAL_SURFACE ( 'NONE', #55, 12.50000000000000000 ) ;
#78 = CC_DESIGN_APPROVAL ( #143, ( #21 ) ) ;
#79 = EDGE_CURVE ( 'NONE', #136, #15, #17, .T. ) ;
#80 = EDGE_LOOP ( 'NONE', ( #94, #165 ) ) ;
#81 = PLANE ( 'NONE',  #48 ) ;
#82 = CARTESIAN_POINT ( 'NONE',  ( 12.50000000000000000, 1.530808498934191521E-15, 5.000000000000000000 ) ) ;
#83 = LINE ( 'NONE', #137, #63 ) ;
#84 = CARTESIAN_POINT ( 'NONE',  ( 0.000000000000000000, 0.000000000000000000, 5.000000000000000000 ) ) ;
#85 = APPLICATION_PROTOCOL_DEFINITION ( 'international standard', 'config_control_design', 1994, #146 ) ;
#86 = CARTESIAN_POINT ( 'NONE',  ( -12.50000000000000000, 0.000000000000000000, 5.000000000000000000 ) ) ;
#87 = CIRCLE ( 'NONE', #130, 12.50000000000000000 ) ;
#88 = APPLICATION_CONTEXT ( 'configuration controlled 3d designs of mechanical parts and assemblies' ) ;
#89 = PERSON_AND_ORGANIZATION ( #138, #38 ) ;
#90 = PERSON_AND_ORGANIZATION_ROLE ( 'creator' ) ;
#91 = APPROVAL_DATE_TIME ( #166, #102 ) ;
#92 = APPROVAL_DATE_TIME ( #49, #122 ) ;
#93 = COORDINATED_UNIVERSAL_TIME_OFFSET ( 5, 0, .BEHIND. ) ;
#94 = ORIENTED_EDGE ( 'NONE', *, *, #79, .T. ) ;
#95 = EDGE_LOOP ( 'NONE', ( #52, #57, #150, #108 ) ) ;
#96 = CC_DESIGN_PERSON_AND_ORGANIZATION_ASSIGNMENT ( #172, #106, ( #104 ) ) ;
#97 = CC_DESIGN_SECURITY_CLASSIFICATION ( #104, ( #129 ) ) ;
#98 = ORIENTED_EDGE ( 'NONE', *, *, #27, .F. ) ;
#99 = DIRECTION ( 'NONE',  ( 0.000000000000000000, 0.000000000000000000, 1.000000000000000000 ) ) ;
#100 = DIRECTION ( 'NONE',  ( 1.000000000000000000, 0.000000000000000000, 0.000000000000000000 ) ) ;
#101 = PERSON_AND_ORGANIZATION ( #138, #38 ) ;
#102 = APPROVAL ( #120, 'UNSPECIFIED' ) ;
#103 = PERSON_AND_ORGANIZATION ( #138, #38 ) ;
#104 = SECURITY_CLASSIFICATION ( '', '', #2 ) ;
#105 = EDGE_LOOP ( 'NONE', ( #18, #152, #168, #58 ) ) ;
#106 = PERSON_AND_ORGANIZATION_ROLE ( 'classification_officer' ) ;
#107 = EDGE_CURVE ( 'NONE', #15, #136, #135, .T. ) ;
#108 = ORIENTED_EDGE ( 'NONE', *, *, #27, .T. ) ;
#109 = DIRECTION ( 'NONE',  ( -1.000000000000000000, 0.000000000000000000, 0.000000000000000000 ) ) ;
#110 = MANIFOLD_SOLID_BREP ( 'Boss-Extrude1', #119 ) ;
#111 = CARTESIAN_POINT ( 'NONE',  ( 0.000000000000000000, 0.000000000000000000, 0.000000000000000000 ) ) ;
#112 = APPROVAL_ROLE ( '' ) ;
#113 = DIRECTION ( 'NONE',  ( -0.000000000000000000, -0.000000000000000000, -1.000000000000000000 ) ) ;
#114 = LOCAL_TIME ( 11, 7, 38.00000000000000000, #132 ) ;
#115 = DIRECTION ( 'NONE',  ( 1.000000000000000000, 0.000000000000000000, 0.000000000000000000 ) ) ;
#116 = CC_DESIGN_PERSON_AND_ORGANIZATION_ASSIGNMENT ( #89, #72, ( #21 ) ) ;
#117 = PERSON_AND_ORGANIZATION ( #138, #38 ) ;
#118 = DATE_TIME_ROLE ( 'creation_date' ) ;
#119 = CLOSED_SHELL ( 'NONE', ( #60, #16, #142, #128 ) ) ;
#120 = APPROVAL_STATUS ( 'not_yet_approved' ) ;
#121 = COORDINATED_UNIVERSAL_TIME_OFFSET ( 5, 0, .BEHIND. ) ;
#122 = APPROVAL ( #35, 'UNSPECIFIED' ) ;
#123 = ORIENTED_EDGE ( 'NONE', *, *, #11, .F. ) ;
#124 = CARTESIAN_POINT ( 'NONE',  ( 0.000000000000000000, 0.000000000000000000, 5.000000000000000000 ) ) ;
#125 = DIRECTION ( 'NONE',  ( 0.000000000000000000, 0.000000000000000000, 1.000000000000000000 ) ) ;
#126 = UNCERTAINTY_MEASURE_WITH_UNIT (LENGTH_MEASURE( 1.000000000000000082E-05 ), #20, 'distance_accuracy_value', 'NONE');
#127 = DIRECTION ( 'NONE',  ( -1.000000000000000000, 0.000000000000000000, 0.000000000000000000 ) ) ;
#128 = ADVANCED_FACE ( 'NONE', ( #34 ), #59, .F. ) ;
#129 = PRODUCT_DEFINITION_FORMATION_WITH_SPECIFIED_SOURCE ( 'ANY', '', #46, .NOT_KNOWN. ) ;
#130 = AXIS2_PLACEMENT_3D ( 'NONE', #170, #30, #133 ) ;
#131 = APPROVAL_ROLE ( '' ) ;
#132 = COORDINATED_UNIVERSAL_TIME_OFFSET ( 5, 0, .BEHIND. ) ;
#133 = DIRECTION ( 'NONE',  ( 1.000000000000000000, 0.000000000000000000, 0.000000000000000000 ) ) ;
#134 = CALENDAR_DATE ( 2022, 6, 4 ) ;
#135 = CIRCLE ( 'NONE', #22, 12.50000000000000000 ) ;
#136 = VERTEX_POINT ( 'NONE', #86 ) ;
#137 = CARTESIAN_POINT ( 'NONE',  ( -12.50000000000000000, 0.000000000000000000, 5.000000000000000000 ) ) ;
#138 = PERSON ( 'UNSPECIFIED', 'UNSPECIFIED', 'UNSPECIFIED', ('UNSPECIFIED'), ('UNSPECIFIED'), ('UNSPECIFIED') ) ;
#139 = FACE_OUTER_BOUND ( 'NONE', #80, .T. ) ;
#140 = APPROVAL_DATE_TIME ( #68, #143 ) ;
#141 = DATE_AND_TIME ( #134, #13 ) ;
#142 = ADVANCED_FACE ( 'NONE', ( #139 ), #81, .T. ) ;
#143 = APPROVAL ( #159, 'UNSPECIFIED' ) ;
#144 = DIRECTION ( 'NONE',  ( 1.000000000000000000, 0.000000000000000000, 0.000000000000000000 ) ) ;
#145 = DATE_TIME_ROLE ( 'classification_date' ) ;
#146 = APPLICATION_CONTEXT ( 'configuration controlled 3d designs of mechanical parts and assemblies' ) ;
#147 = CARTESIAN_POINT ( 'NONE',  ( 0.000000000000000000, 0.000000000000000000, 0.000000000000000000 ) ) ;
#148 = DIRECTION ( 'NONE',  ( 0.000000000000000000, 0.000000000000000000, 1.000000000000000000 ) ) ;
#149 = APPROVAL_PERSON_ORGANIZATION ( #101, #143, #112 ) ;
#150 = ORIENTED_EDGE ( 'NONE', *, *, #162, .T. ) ;
#151 = CC_DESIGN_DATE_AND_TIME_ASSIGNMENT ( #76, #145, ( #104 ) ) ;
#152 = ORIENTED_EDGE ( 'NONE', *, *, #70, .T. ) ;
#153 = DIRECTION ( 'NONE',  ( 1.000000000000000000, 0.000000000000000000, 0.000000000000000000 ) ) ;
#154 = FACE_OUTER_BOUND ( 'NONE', #105, .T. ) ;
#155 = CC_DESIGN_PERSON_AND_ORGANIZATION_ASSIGNMENT ( #167, #42, ( #46 ) ) ;
#156 = VECTOR ( 'NONE', #113, 1000.000000000000000 ) ;
#157 = CARTESIAN_POINT ( 'NONE',  ( 0.000000000000000000, 0.000000000000000000, 5.000000000000000000 ) ) ;
#158 = APPROVAL_PERSON_ORGANIZATION ( #174, #102, #131 ) ;
#159 = APPROVAL_STATUS ( 'not_yet_approved' ) ;
#160 = CARTESIAN_POINT ( 'NONE',  ( 12.50000000000000000, 1.530808498934191521E-15, 0.000000000000000000 ) ) ;
#161 = CC_DESIGN_APPROVAL ( #122, ( #129 ) ) ;
#162 = EDGE_CURVE ( 'NONE', #136, #14, #83, .T. ) ;
#163 = AXIS2_PLACEMENT_3D ( 'NONE', #44, #148, #153 ) ;
#164 = PERSON_AND_ORGANIZATION_ROLE ( 'design_supplier' ) ;
#165 = ORIENTED_EDGE ( 'NONE', *, *, #107, .T. ) ;
#166 = DATE_AND_TIME ( #25, #114 ) ;
#167 = PERSON_AND_ORGANIZATION ( #138, #38 ) ;
#168 = ORIENTED_EDGE ( 'NONE', *, *, #11, .T. ) ;
#169 = AXIS2_PLACEMENT_3D ( 'NONE', #147, #67, #144 ) ;
#170 = CARTESIAN_POINT ( 'NONE',  ( 0.000000000000000000, 0.000000000000000000, 0.000000000000000000 ) ) ;
#171 = COORDINATED_UNIVERSAL_TIME_OFFSET ( 5, 0, .BEHIND. ) ;
#172 = PERSON_AND_ORGANIZATION ( #138, #38 ) ;
#173 = APPROVAL_ROLE ( '' ) ;
#174 = PERSON_AND_ORGANIZATION ( #138, #38 ) ;
#175 = CC_DESIGN_APPROVAL ( #102, ( #104 ) ) ;
ENDSEC;
END-ISO-10303-21;
