ISO-10303-21;
HEADER;
FILE_DESCRIPTION (( 'STEP AP203' ),
    '1' );
FILE_NAME ('Web Model 46461_18719.step',
    '2021-07-13T18:56:44',
    ( '' ),
    ( '' ),
    'SwSTEP 2.0',
    'SolidWorks 2018',
    '' );
FILE_SCHEMA (( 'CONFIG_CONTROL_DESIGN' ));
ENDSEC;

DATA;
#1 = VERTEX_POINT ( 'NONE', #58 ) ;
#2 = DIRECTION ( 'NONE',  ( 0.000000000000000000, 1.000000000000000000, -1.826024711554534160E-16 ) ) ;
#3 = DIRECTION ( 'NONE',  ( 0.000000000000000000, 0.000000000000000000, -1.000000000000000000 ) ) ;
#4 = AXIS2_PLACEMENT_3D ( 'NONE', #21, #165, #168 ) ;
#5 = APPLICATION_PROTOCOL_DEFINITION ( 'international standard', 'config_control_design', 1994, #27 ) ;
#6 = ORIENTED_EDGE ( 'NONE', *, *, #126, .T. ) ;
#7 = DIRECTION ( 'NONE',  ( 0.000000000000000000, -1.000000000000000000, -1.826024711554534160E-16 ) ) ;
#8 = DATE_AND_TIME ( #109, #159 ) ;
#9 = DIRECTION ( 'NONE',  ( 1.000000000000000000, 0.000000000000000000, 0.000000000000000000 ) ) ;
#10 = CARTESIAN_POINT ( 'NONE',  ( -0.7500000000000000000, 18.99999999999999645, 19.00000000000000000 ) ) ;
#11 = EDGE_LOOP ( 'NONE', ( #149, #225, #217, #6 ) ) ;
#12 = EDGE_CURVE ( 'NONE', #63, #166, #81, .T. ) ;
#13 = SHAPE_DEFINITION_REPRESENTATION ( #31, #15 ) ;
#14 = ADVANCED_FACE ( 'NONE', ( #112 ), #224, .F. ) ;
#15 = ADVANCED_BREP_SHAPE_REPRESENTATION ( 'Web Model 46461_18719', ( #29, #50 ), #86 ) ;
#16 = AXIS2_PLACEMENT_3D ( 'NONE', #120, #140, #7 ) ;
#17 = EDGE_LOOP ( 'NONE', ( #90, #201, #200, #221 ) ) ;
#18 = COORDINATED_UNIVERSAL_TIME_OFFSET ( 5, 0, .BEHIND. ) ;
#19 = PERSON_AND_ORGANIZATION ( #211, #231 ) ;
#20 = VECTOR ( 'NONE', #167, 1000.000000000000000 ) ;
#21 = CARTESIAN_POINT ( 'NONE',  ( -0.7500000000000000000, 0.000000000000000000, 0.000000000000000000 ) ) ;
#22 = DIRECTION ( 'NONE',  ( 0.000000000000000000, 0.000000000000000000, -1.000000000000000000 ) ) ;
#23 = DIRECTION ( 'NONE',  ( -1.000000000000000000, -0.000000000000000000, -0.000000000000000000 ) ) ;
#24 = FACE_OUTER_BOUND ( 'NONE', #157, .T. ) ;
#25 = SECURITY_CLASSIFICATION ( '', '', #195 ) ;
#26 = APPROVAL_ROLE ( '' ) ;
#27 = APPLICATION_CONTEXT ( 'configuration controlled 3d designs of mechanical parts and assemblies' ) ;
#28 = ORIENTED_EDGE ( 'NONE', *, *, #79, .F. ) ;
#29 = MANIFOLD_SOLID_BREP ( 'Boss-Extrude1', #146 ) ;
#30 = APPROVAL_ROLE ( '' ) ;
#31 = PRODUCT_DEFINITION_SHAPE ( 'NONE', 'NONE',  #223 ) ;
#32 = VERTEX_POINT ( 'NONE', #78 ) ;
#33 = DATE_AND_TIME ( #84, #197 ) ;
#34 = CC_DESIGN_PERSON_AND_ORGANIZATION_ASSIGNMENT ( #182, #175, ( #198 ) ) ;
#35 = PERSON_AND_ORGANIZATION ( #211, #231 ) ;
#36 = VECTOR ( 'NONE', #188, 1000.000000000000000 ) ;
#37 = APPROVAL ( #49, 'UNSPECIFIED' ) ;
#38 = ORIENTED_EDGE ( 'NONE', *, *, #12, .F. ) ;
#39 = CARTESIAN_POINT ( 'NONE',  ( 0.7500000000000000000, 18.99999999999999645, 19.00000000000000000 ) ) ;
#40 = CARTESIAN_POINT ( 'NONE',  ( 0.7500000000000000000, 18.99999999999999645, -19.00000000000000000 ) ) ;
#41 = DIRECTION ( 'NONE',  ( -0.000000000000000000, 1.000000000000000000, 1.826024711554534160E-16 ) ) ;
#42 = CARTESIAN_POINT ( 'NONE',  ( 0.7500000000000000000, 18.99999999999999645, 19.00000000000000000 ) ) ;
#43 = LOCAL_TIME ( 14, 56, 44.00000000000000000, #183 ) ;
#44 = COORDINATED_UNIVERSAL_TIME_OFFSET ( 5, 0, .BEHIND. ) ;
#45 = VECTOR ( 'NONE', #156, 1000.000000000000000 ) ;
#46 = DATE_TIME_ROLE ( 'classification_date' ) ;
#47 = APPROVAL_STATUS ( 'not_yet_approved' ) ;
#48 = ORIENTED_EDGE ( 'NONE', *, *, #202, .F. ) ;
#49 = APPROVAL_STATUS ( 'not_yet_approved' ) ;
#50 = AXIS2_PLACEMENT_3D ( 'NONE', #65, #145, #9 ) ;
#51 = DATE_TIME_ROLE ( 'creation_date' ) ;
#52 = CC_DESIGN_SECURITY_CLASSIFICATION ( #25, ( #93 ) ) ;
#53 = ORIENTED_EDGE ( 'NONE', *, *, #216, .T. ) ;
#54 = LINE ( 'NONE', #67, #204 ) ;
#55 = LINE ( 'NONE', #57, #101 ) ;
#56 = CC_DESIGN_PERSON_AND_ORGANIZATION_ASSIGNMENT ( #144, #121, ( #25 ) ) ;
#57 = CARTESIAN_POINT ( 'NONE',  ( -0.7500000000000000000, 18.99999999999999645, 19.00000000000000000 ) ) ;
#58 = CARTESIAN_POINT ( 'NONE',  ( 0.7500000000000000000, -18.99999999999999645, 19.00000000000000711 ) ) ;
#59 = ORIENTED_EDGE ( 'NONE', *, *, #108, .T. ) ;
#60 = CC_DESIGN_PERSON_AND_ORGANIZATION_ASSIGNMENT ( #237, #173, ( #93 ) ) ;
#61 = CARTESIAN_POINT ( 'NONE',  ( 0.7500000000000000000, 18.99999999999999645, -19.00000000000000000 ) ) ;
#62 = CARTESIAN_POINT ( 'NONE',  ( 0.7500000000000000000, -18.99999999999999645, -19.00000000000000711 ) ) ;
#63 = VERTEX_POINT ( 'NONE', #62 ) ;
#64 = EDGE_CURVE ( 'NONE', #32, #76, #150, .T. ) ;
#65 = CARTESIAN_POINT ( 'NONE',  ( 0.000000000000000000, 0.000000000000000000, 0.000000000000000000 ) ) ;
#66 = PERSON_AND_ORGANIZATION_ROLE ( 'creator' ) ;
#67 = CARTESIAN_POINT ( 'NONE',  ( -0.7500000000000000000, 18.99999999999999645, -19.00000000000000000 ) ) ;
#68 = PERSON_AND_ORGANIZATION ( #211, #231 ) ;
#69 = VECTOR ( 'NONE', #196, 1000.000000000000000 ) ;
#70 = LINE ( 'NONE', #133, #20 ) ;
#71 = ADVANCED_FACE ( 'NONE', ( #124 ), #206, .F. ) ;
#72 = CC_DESIGN_APPROVAL ( #228, ( #93 ) ) ;
#73 = LOCAL_TIME ( 14, 56, 44.00000000000000000, #44 ) ;
#74 = LINE ( 'NONE', #152, #36 ) ;
#75 = PLANE ( 'NONE',  #114 ) ;
#76 = VERTEX_POINT ( 'NONE', #99 ) ;
#77 = DIRECTION ( 'NONE',  ( 0.000000000000000000, -1.000000000000000000, 1.826024711554534160E-16 ) ) ;
#78 = CARTESIAN_POINT ( 'NONE',  ( 0.7500000000000000000, 18.99999999999999645, 19.00000000000000000 ) ) ;
#79 = EDGE_CURVE ( 'NONE', #232, #181, #130, .T. ) ;
#80 =( LENGTH_UNIT ( ) NAMED_UNIT ( * ) SI_UNIT ( .MILLI., .METRE. ) );
#81 = LINE ( 'NONE', #61, #220 ) ;
#82 = APPLICATION_PROTOCOL_DEFINITION ( 'international standard', 'config_control_design', 1994, #137 ) ;
#83 = DIRECTION ( 'NONE',  ( 0.000000000000000000, -1.000000000000000000, 0.000000000000000000 ) ) ;
#84 = CALENDAR_DATE ( 2021, 13, 7 ) ;
#85 = APPROVAL_DATE_TIME ( #178, #189 ) ;
#86 =( GEOMETRIC_REPRESENTATION_CONTEXT ( 3 ) GLOBAL_UNCERTAINTY_ASSIGNED_CONTEXT ( ( #98 ) ) GLOBAL_UNIT_ASSIGNED_CONTEXT ( ( #80, #194, #143 ) ) REPRESENTATION_CONTEXT ( 'NONE', 'WORKASPACE' ) );
#87 = ORIENTED_EDGE ( 'NONE', *, *, #79, .T. ) ;
#88 = DATE_AND_TIME ( #138, #73 ) ;
#89 = ADVANCED_FACE ( 'NONE', ( #172 ), #192, .F. ) ;
#90 = ORIENTED_EDGE ( 'NONE', *, *, #129, .T. ) ;
#91 = PERSON_AND_ORGANIZATION ( #211, #231 ) ;
#92 = FACE_OUTER_BOUND ( 'NONE', #11, .T. ) ;
#93 = PRODUCT_DEFINITION_FORMATION_WITH_SPECIFIED_SOURCE ( 'ANY', '', #198, .NOT_KNOWN. ) ;
#94 = ORIENTED_EDGE ( 'NONE', *, *, #148, .T. ) ;
#95 = DIRECTION ( 'NONE',  ( 0.000000000000000000, -1.000000000000000000, 1.826024711554534160E-16 ) ) ;
#96 = DATE_AND_TIME ( #122, #179 ) ;
#97 = DIRECTION ( 'NONE',  ( 1.000000000000000000, 0.000000000000000000, 0.000000000000000000 ) ) ;
#98 = UNCERTAINTY_MEASURE_WITH_UNIT (LENGTH_MEASURE( 1.000000000000000082E-05 ), #80, 'distance_accuracy_value', 'NONE');
#99 = CARTESIAN_POINT ( 'NONE',  ( -0.7500000000000000000, 18.99999999999999645, 19.00000000000000000 ) ) ;
#100 = CC_DESIGN_DATE_AND_TIME_ASSIGNMENT ( #88, #46, ( #25 ) ) ;
#101 = VECTOR ( 'NONE', #77, 1000.000000000000000 ) ;
#102 = CARTESIAN_POINT ( 'NONE',  ( -0.7500000000000000000, -18.99999999999999645, -19.00000000000000711 ) ) ;
#103 = EDGE_LOOP ( 'NONE', ( #87, #209, #191, #132 ) ) ;
#104 = APPROVAL_STATUS ( 'not_yet_approved' ) ;
#105 = EDGE_CURVE ( 'NONE', #166, #32, #74, .T. ) ;
#106 = LINE ( 'NONE', #210, #69 ) ;
#107 = DESIGN_CONTEXT ( 'detailed design', #137, 'design' ) ;
#108 = EDGE_CURVE ( 'NONE', #63, #181, #213, .T. ) ;
#109 = CALENDAR_DATE ( 2021, 13, 7 ) ;
#110 = CC_DESIGN_APPROVAL ( #37, ( #25 ) ) ;
#111 = ADVANCED_FACE ( 'NONE', ( #24 ), #75, .T. ) ;
#112 = FACE_OUTER_BOUND ( 'NONE', #17, .T. ) ;
#113 = DIRECTION ( 'NONE',  ( 0.000000000000000000, -1.826024711554534160E-16, -1.000000000000000000 ) ) ;
#114 = AXIS2_PLACEMENT_3D ( 'NONE', #116, #97, #3 ) ;
#115 = CARTESIAN_POINT ( 'NONE',  ( -0.7500000000000000000, -18.99999999999999645, 19.00000000000000711 ) ) ;
#116 = CARTESIAN_POINT ( 'NONE',  ( 0.7500000000000000000, 0.000000000000000000, 0.000000000000000000 ) ) ;
#117 = EDGE_CURVE ( 'NONE', #1, #232, #70, .T. ) ;
#118 = PLANE ( 'NONE',  #16 ) ;
#119 = VECTOR ( 'NONE', #22, 1000.000000000000000 ) ;
#120 = CARTESIAN_POINT ( 'NONE',  ( 0.7500000000000000000, 18.99999999999999645, -19.00000000000000000 ) ) ;
#121 = PERSON_AND_ORGANIZATION_ROLE ( 'classification_officer' ) ;
#122 = CALENDAR_DATE ( 2021, 13, 7 ) ;
#123 = PRODUCT_RELATED_PRODUCT_CATEGORY ( 'detail', '', ( #198 ) ) ;
#124 = FACE_OUTER_BOUND ( 'NONE', #103, .T. ) ;
#125 = ORIENTED_EDGE ( 'NONE', *, *, #126, .F. ) ;
#126 = EDGE_CURVE ( 'NONE', #166, #214, #227, .T. ) ;
#127 = PERSON_AND_ORGANIZATION ( #211, #231 ) ;
#128 = APPROVAL_PERSON_ORGANIZATION ( #68, #37, #160 ) ;
#129 = EDGE_CURVE ( 'NONE', #76, #232, #55, .T. ) ;
#130 = LINE ( 'NONE', #115, #119 ) ;
#131 = CARTESIAN_POINT ( 'NONE',  ( 0.7500000000000000000, -18.99999999999999645, 19.00000000000000711 ) ) ;
#132 = ORIENTED_EDGE ( 'NONE', *, *, #117, .T. ) ;
#133 = CARTESIAN_POINT ( 'NONE',  ( 0.7500000000000000000, -18.99999999999999645, 19.00000000000000711 ) ) ;
#134 = CARTESIAN_POINT ( 'NONE',  ( 0.7500000000000000000, 18.99999999999999645, 19.00000000000000000 ) ) ;
#135 = CC_DESIGN_APPROVAL ( #189, ( #223 ) ) ;
#136 = APPROVAL_PERSON_ORGANIZATION ( #19, #189, #26 ) ;
#137 = APPLICATION_CONTEXT ( 'configuration controlled 3d designs of mechanical parts and assemblies' ) ;
#138 = CALENDAR_DATE ( 2021, 13, 7 ) ;
#139 = LINE ( 'NONE', #10, #45 ) ;
#140 = DIRECTION ( 'NONE',  ( 0.000000000000000000, -1.826024711554534160E-16, 1.000000000000000000 ) ) ;
#141 = CARTESIAN_POINT ( 'NONE',  ( -0.7500000000000000000, -18.99999999999999645, 19.00000000000000711 ) ) ;
#142 = ORIENTED_EDGE ( 'NONE', *, *, #105, .T. ) ;
#143 =( NAMED_UNIT ( * ) SI_UNIT ( $, .STERADIAN. ) SOLID_ANGLE_UNIT ( ) );
#144 = PERSON_AND_ORGANIZATION ( #211, #231 ) ;
#145 = DIRECTION ( 'NONE',  ( 0.000000000000000000, 0.000000000000000000, 1.000000000000000000 ) ) ;
#146 = CLOSED_SHELL ( 'NONE', ( #14, #71, #218, #185, #111, #89 ) ) ;
#147 = VECTOR ( 'NONE', #95, 1000.000000000000000 ) ;
#148 = EDGE_CURVE ( 'NONE', #32, #1, #193, .T. ) ;
#149 = ORIENTED_EDGE ( 'NONE', *, *, #202, .T. ) ;
#150 = LINE ( 'NONE', #134, #184 ) ;
#151 = APPROVAL_DATE_TIME ( #8, #37 ) ;
#152 = CARTESIAN_POINT ( 'NONE',  ( 0.7500000000000000000, 18.99999999999999645, 19.00000000000000000 ) ) ;
#153 = DIRECTION ( 'NONE',  ( 0.000000000000000000, -0.000000000000000000, 1.000000000000000000 ) ) ;
#154 = CARTESIAN_POINT ( 'NONE',  ( 0.7500000000000000000, 18.99999999999999645, -19.00000000000000000 ) ) ;
#155 = AXIS2_PLACEMENT_3D ( 'NONE', #158, #83, #208 ) ;
#156 = DIRECTION ( 'NONE',  ( -0.000000000000000000, -0.000000000000000000, 1.000000000000000000 ) ) ;
#157 = EDGE_LOOP ( 'NONE', ( #94, #235, #236, #142 ) ) ;
#158 = CARTESIAN_POINT ( 'NONE',  ( 0.7500000000000000000, 18.99999999999999645, 19.00000000000000000 ) ) ;
#159 = LOCAL_TIME ( 14, 56, 44.00000000000000000, #18 ) ;
#160 = APPROVAL_ROLE ( '' ) ;
#161 = FACE_OUTER_BOUND ( 'NONE', #170, .T. ) ;
#162 = VECTOR ( 'NONE', #205, 1000.000000000000000 ) ;
#163 = APPROVAL_PERSON_ORGANIZATION ( #127, #228, #30 ) ;
#164 = VECTOR ( 'NONE', #222, 1000.000000000000000 ) ;
#165 = DIRECTION ( 'NONE',  ( 1.000000000000000000, 0.000000000000000000, 0.000000000000000000 ) ) ;
#166 = VERTEX_POINT ( 'NONE', #154 ) ;
#167 = DIRECTION ( 'NONE',  ( -1.000000000000000000, -0.000000000000000000, -0.000000000000000000 ) ) ;
#168 = DIRECTION ( 'NONE',  ( 0.000000000000000000, 0.000000000000000000, -1.000000000000000000 ) ) ;
#169 = CC_DESIGN_DATE_AND_TIME_ASSIGNMENT ( #33, #51, ( #223 ) ) ;
#170 = EDGE_LOOP ( 'NONE', ( #53, #125, #38, #59 ) ) ;
#171 = MECHANICAL_CONTEXT ( 'NONE', #27, 'mechanical' ) ;
#172 = FACE_OUTER_BOUND ( 'NONE', #176, .T. ) ;
#173 = PERSON_AND_ORGANIZATION_ROLE ( 'creator' ) ;
#174 = DIRECTION ( 'NONE',  ( -0.000000000000000000, 1.000000000000000000, 1.826024711554534160E-16 ) ) ;
#175 = PERSON_AND_ORGANIZATION_ROLE ( 'design_owner' ) ;
#176 = EDGE_LOOP ( 'NONE', ( #186, #48, #177, #28 ) ) ;
#177 = ORIENTED_EDGE ( 'NONE', *, *, #216, .F. ) ;
#178 = DATE_AND_TIME ( #234, #43 ) ;
#179 = LOCAL_TIME ( 14, 56, 44.00000000000000000, #215 ) ;
#180 = AXIS2_PLACEMENT_3D ( 'NONE', #42, #113, #2 ) ;
#181 = VERTEX_POINT ( 'NONE', #102 ) ;
#182 = PERSON_AND_ORGANIZATION ( #211, #231 ) ;
#183 = COORDINATED_UNIVERSAL_TIME_OFFSET ( 5, 0, .BEHIND. ) ;
#184 = VECTOR ( 'NONE', #23, 1000.000000000000000 ) ;
#185 = ADVANCED_FACE ( 'NONE', ( #92 ), #207, .F. ) ;
#186 = ORIENTED_EDGE ( 'NONE', *, *, #129, .F. ) ;
#187 = CARTESIAN_POINT ( 'NONE',  ( 0.7500000000000000000, -18.99999999999999645, -19.00000000000000711 ) ) ;
#188 = DIRECTION ( 'NONE',  ( -0.000000000000000000, -0.000000000000000000, 1.000000000000000000 ) ) ;
#189 = APPROVAL ( #104, 'UNSPECIFIED' ) ;
#190 = DIRECTION ( 'NONE',  ( -0.000000000000000000, 1.000000000000000000, 0.000000000000000000 ) ) ;
#191 = ORIENTED_EDGE ( 'NONE', *, *, #203, .F. ) ;
#192 = PLANE ( 'NONE',  #4 ) ;
#193 = LINE ( 'NONE', #39, #147 ) ;
#194 =( NAMED_UNIT ( * ) PLANE_ANGLE_UNIT ( ) SI_UNIT ( $, .RADIAN. ) );
#195 = SECURITY_CLASSIFICATION_LEVEL ( 'unclassified' ) ;
#196 = DIRECTION ( 'NONE',  ( 0.000000000000000000, 0.000000000000000000, -1.000000000000000000 ) ) ;
#197 = LOCAL_TIME ( 14, 56, 44.00000000000000000, #226 ) ;
#198 = PRODUCT ( 'Web Model 46461_18719', 'Web Model 46461_18719', '', ( #171 ) ) ;
#199 = CC_DESIGN_PERSON_AND_ORGANIZATION_ASSIGNMENT ( #91, #230, ( #93 ) ) ;
#200 = ORIENTED_EDGE ( 'NONE', *, *, #148, .F. ) ;
#201 = ORIENTED_EDGE ( 'NONE', *, *, #117, .F. ) ;
#202 = EDGE_CURVE ( 'NONE', #214, #76, #139, .T. ) ;
#203 = EDGE_CURVE ( 'NONE', #1, #63, #106, .T. ) ;
#204 = VECTOR ( 'NONE', #174, 1000.000000000000000 ) ;
#205 = DIRECTION ( 'NONE',  ( -1.000000000000000000, -0.000000000000000000, -0.000000000000000000 ) ) ;
#206 = PLANE ( 'NONE',  #233 ) ;
#207 = PLANE ( 'NONE',  #155 ) ;
#208 = DIRECTION ( 'NONE',  ( 0.000000000000000000, -0.000000000000000000, -1.000000000000000000 ) ) ;
#209 = ORIENTED_EDGE ( 'NONE', *, *, #108, .F. ) ;
#210 = CARTESIAN_POINT ( 'NONE',  ( 0.7500000000000000000, -18.99999999999999645, 19.00000000000000711 ) ) ;
#211 = PERSON ( 'UNSPECIFIED', 'UNSPECIFIED', 'UNSPECIFIED', ('UNSPECIFIED'), ('UNSPECIFIED'), ('UNSPECIFIED') ) ;
#212 = CC_DESIGN_PERSON_AND_ORGANIZATION_ASSIGNMENT ( #35, #66, ( #223 ) ) ;
#213 = LINE ( 'NONE', #187, #162 ) ;
#214 = VERTEX_POINT ( 'NONE', #229 ) ;
#215 = COORDINATED_UNIVERSAL_TIME_OFFSET ( 5, 0, .BEHIND. ) ;
#216 = EDGE_CURVE ( 'NONE', #181, #214, #54, .T. ) ;
#217 = ORIENTED_EDGE ( 'NONE', *, *, #105, .F. ) ;
#218 = ADVANCED_FACE ( 'NONE', ( #161 ), #118, .F. ) ;
#219 = APPROVAL_DATE_TIME ( #96, #228 ) ;
#220 = VECTOR ( 'NONE', #41, 1000.000000000000000 ) ;
#221 = ORIENTED_EDGE ( 'NONE', *, *, #64, .T. ) ;
#222 = DIRECTION ( 'NONE',  ( -1.000000000000000000, -0.000000000000000000, -0.000000000000000000 ) ) ;
#223 = PRODUCT_DEFINITION ( 'UNKNOWN', '', #93, #107 ) ;
#224 = PLANE ( 'NONE',  #180 ) ;
#225 = ORIENTED_EDGE ( 'NONE', *, *, #64, .F. ) ;
#226 = COORDINATED_UNIVERSAL_TIME_OFFSET ( 5, 0, .BEHIND. ) ;
#227 = LINE ( 'NONE', #40, #164 ) ;
#228 = APPROVAL ( #47, 'UNSPECIFIED' ) ;
#229 = CARTESIAN_POINT ( 'NONE',  ( -0.7500000000000000000, 18.99999999999999645, -19.00000000000000000 ) ) ;
#230 = PERSON_AND_ORGANIZATION_ROLE ( 'design_supplier' ) ;
#231 = ORGANIZATION ( 'UNSPECIFIED', 'UNSPECIFIED', '' ) ;
#232 = VERTEX_POINT ( 'NONE', #141 ) ;
#233 = AXIS2_PLACEMENT_3D ( 'NONE', #131, #190, #153 ) ;
#234 = CALENDAR_DATE ( 2021, 13, 7 ) ;
#235 = ORIENTED_EDGE ( 'NONE', *, *, #203, .T. ) ;
#236 = ORIENTED_EDGE ( 'NONE', *, *, #12, .T. ) ;
#237 = PERSON_AND_ORGANIZATION ( #211, #231 ) ;
ENDSEC;
END-ISO-10303-21;
