ISO-10303-21;
HEADER;
FILE_DESCRIPTION (( 'STEP AP203' ),
    '1' );
FILE_NAME ('Web Model 47020_18715.step',
    '2021-07-13T14:02:10',
    ( '' ),
    ( '' ),
    'SwSTEP 2.0',
    'SolidWorks 2018',
    '' );
FILE_SCHEMA (( 'CONFIG_CONTROL_DESIGN' ));
ENDSEC;

DATA;
#1 = EDGE_CURVE ( 'NONE', #105, #151, #60, .T. ) ;
#2 = DIRECTION ( 'NONE',  ( -1.000000000000000000, -0.000000000000000000, -0.000000000000000000 ) ) ;
#3 = ORIENTED_EDGE ( 'NONE', *, *, #39, .F. ) ;
#4 = CARTESIAN_POINT ( 'NONE',  ( 0.7500000000000000000, 6.349999999999997868, -6.349999999999999645 ) ) ;
#5 = SECURITY_CLASSIFICATION ( '', '', #134 ) ;
#6 = APPLICATION_PROTOCOL_DEFINITION ( 'international standard', 'config_control_design', 1994, #108 ) ;
#7 = PRODUCT_DEFINITION_SHAPE ( 'NONE', 'NONE',  #109 ) ;
#8 = EDGE_CURVE ( 'NONE', #162, #11, #96, .T. ) ;
#9 = LINE ( 'NONE', #106, #207 ) ;
#10 = CALENDAR_DATE ( 2021, 13, 7 ) ;
#11 = VERTEX_POINT ( 'NONE', #84 ) ;
#12 = ORIENTED_EDGE ( 'NONE', *, *, #98, .T. ) ;
#13 = DESIGN_CONTEXT ( 'detailed design', #108, 'design' ) ;
#14 = VECTOR ( 'NONE', #67, 1000.000000000000000 ) ;
#15 = DIRECTION ( 'NONE',  ( -1.000000000000000000, -0.000000000000000000, -0.000000000000000000 ) ) ;
#16 = ORIENTED_EDGE ( 'NONE', *, *, #29, .F. ) ;
#17 = EDGE_CURVE ( 'NONE', #11, #145, #37, .T. ) ;
#18 = DIRECTION ( 'NONE',  ( 0.000000000000000000, -2.048885995248197414E-16, -1.000000000000000000 ) ) ;
#19 = DIRECTION ( 'NONE',  ( 0.000000000000000000, 0.000000000000000000, -1.000000000000000000 ) ) ;
#20 = ORIENTED_EDGE ( 'NONE', *, *, #166, .F. ) ;
#21 = CARTESIAN_POINT ( 'NONE',  ( -0.7500000000000000000, 6.349999999999997868, 6.349999999999999645 ) ) ;
#22 = APPROVAL ( #34, 'UNSPECIFIED' ) ;
#23 = DIRECTION ( 'NONE',  ( 0.000000000000000000, 0.000000000000000000, -1.000000000000000000 ) ) ;
#24 = EDGE_LOOP ( 'NONE', ( #204, #16, #125, #95 ) ) ;
#25 = CALENDAR_DATE ( 2021, 13, 7 ) ;
#26 = EDGE_LOOP ( 'NONE', ( #46, #57, #20, #55 ) ) ;
#27 = CC_DESIGN_DATE_AND_TIME_ASSIGNMENT ( #127, #190, ( #5 ) ) ;
#28 = DATE_AND_TIME ( #10, #223 ) ;
#29 = EDGE_CURVE ( 'NONE', #184, #145, #140, .T. ) ;
#30 = ORIENTED_EDGE ( 'NONE', *, *, #59, .T. ) ;
#31 = LINE ( 'NONE', #157, #217 ) ;
#32 = CC_DESIGN_APPROVAL ( #112, ( #5 ) ) ;
#33 = COORDINATED_UNIVERSAL_TIME_OFFSET ( 5, 0, .BEHIND. ) ;
#34 = APPROVAL_STATUS ( 'not_yet_approved' ) ;
#35 = DIRECTION ( 'NONE',  ( 1.000000000000000000, 0.000000000000000000, 0.000000000000000000 ) ) ;
#36 = CARTESIAN_POINT ( 'NONE',  ( 0.7500000000000000000, 6.349999999999997868, 6.349999999999999645 ) ) ;
#37 = LINE ( 'NONE', #209, #199 ) ;
#38 = CARTESIAN_POINT ( 'NONE',  ( -0.7500000000000000000, -6.350000000000001421, -6.350000000000002309 ) ) ;
#39 = EDGE_CURVE ( 'NONE', #105, #162, #9, .T. ) ;
#40 = CARTESIAN_POINT ( 'NONE',  ( -0.7500000000000000000, 0.000000000000000000, 0.000000000000000000 ) ) ;
#41 = CC_DESIGN_APPROVAL ( #22, ( #45 ) ) ;
#42 = PERSON_AND_ORGANIZATION ( #173, #44 ) ;
#43 = ORIENTED_EDGE ( 'NONE', *, *, #224, .T. ) ;
#44 = ORGANIZATION ( 'UNSPECIFIED', 'UNSPECIFIED', '' ) ;
#45 = PRODUCT_DEFINITION_FORMATION_WITH_SPECIFIED_SOURCE ( 'ANY', '', #99, .NOT_KNOWN. ) ;
#46 = ORIENTED_EDGE ( 'NONE', *, *, #8, .F. ) ;
#47 = CC_DESIGN_PERSON_AND_ORGANIZATION_ASSIGNMENT ( #167, #220, ( #99 ) ) ;
#48 = ADVANCED_FACE ( 'NONE', ( #130 ), #194, .F. ) ;
#49 = VECTOR ( 'NONE', #15, 1000.000000000000000 ) ;
#50 = CARTESIAN_POINT ( 'NONE',  ( 0.7500000000000000000, -6.350000000000001421, 6.350000000000002309 ) ) ;
#51 = PERSON_AND_ORGANIZATION_ROLE ( 'creator' ) ;
#52 = CARTESIAN_POINT ( 'NONE',  ( 0.7500000000000000000, -6.350000000000001421, 6.350000000000002309 ) ) ;
#53 = DIRECTION ( 'NONE',  ( -0.000000000000000000, 1.000000000000000000, 2.048885995248197414E-16 ) ) ;
#54 = ORIENTED_EDGE ( 'NONE', *, *, #166, .T. ) ;
#55 = ORIENTED_EDGE ( 'NONE', *, *, #17, .F. ) ;
#56 = LINE ( 'NONE', #104, #222 ) ;
#57 = ORIENTED_EDGE ( 'NONE', *, *, #224, .F. ) ;
#58 = SHAPE_DEFINITION_REPRESENTATION ( #7, #226 ) ;
#59 = EDGE_CURVE ( 'NONE', #151, #184, #118, .T. ) ;
#60 = LINE ( 'NONE', #170, #235 ) ;
#61 = ADVANCED_FACE ( 'NONE', ( #115 ), #139, .F. ) ;
#62 = ORIENTED_EDGE ( 'NONE', *, *, #98, .F. ) ;
#63 = ADVANCED_FACE ( 'NONE', ( #78 ), #188, .F. ) ;
#64 = APPROVAL_ROLE ( '' ) ;
#65 = COORDINATED_UNIVERSAL_TIME_OFFSET ( 5, 0, .BEHIND. ) ;
#66 = CARTESIAN_POINT ( 'NONE',  ( -0.7500000000000000000, 6.349999999999997868, 6.349999999999999645 ) ) ;
#67 = DIRECTION ( 'NONE',  ( -1.000000000000000000, -0.000000000000000000, -0.000000000000000000 ) ) ;
#68 = APPROVAL_DATE_TIME ( #102, #22 ) ;
#69 = DIRECTION ( 'NONE',  ( 0.000000000000000000, 1.000000000000000000, -2.048885995248197414E-16 ) ) ;
#70 = CARTESIAN_POINT ( 'NONE',  ( 0.000000000000000000, 0.000000000000000000, 0.000000000000000000 ) ) ;
#71 = DIRECTION ( 'NONE',  ( 0.000000000000000000, 0.000000000000000000, 1.000000000000000000 ) ) ;
#72 = ADVANCED_FACE ( 'NONE', ( #153 ), #90, .F. ) ;
#73 = PERSON_AND_ORGANIZATION_ROLE ( 'design_supplier' ) ;
#74 = VECTOR ( 'NONE', #23, 1000.000000000000000 ) ;
#75 = LOCAL_TIME ( 10, 2, 10.00000000000000000, #65 ) ;
#76 = LOCAL_TIME ( 10, 2, 10.00000000000000000, #152 ) ;
#77 = MANIFOLD_SOLID_BREP ( 'Boss-Extrude1', #164 ) ;
#78 = FACE_OUTER_BOUND ( 'NONE', #175, .T. ) ;
#79 = PERSON_AND_ORGANIZATION ( #173, #44 ) ;
#80 = EDGE_CURVE ( 'NONE', #184, #87, #56, .T. ) ;
#81 = VECTOR ( 'NONE', #135, 1000.000000000000000 ) ;
#82 = AXIS2_PLACEMENT_3D ( 'NONE', #70, #71, #198 ) ;
#83 = PERSON_AND_ORGANIZATION ( #173, #44 ) ;
#84 = CARTESIAN_POINT ( 'NONE',  ( -0.7500000000000000000, -6.350000000000001421, 6.350000000000002309 ) ) ;
#85 = CARTESIAN_POINT ( 'NONE',  ( 0.7500000000000000000, 6.349999999999997868, 6.349999999999999645 ) ) ;
#86 = CARTESIAN_POINT ( 'NONE',  ( 0.7500000000000000000, 6.349999999999997868, 6.349999999999999645 ) ) ;
#87 = VERTEX_POINT ( 'NONE', #117 ) ;
#88 = APPROVAL_ROLE ( '' ) ;
#89 = FACE_OUTER_BOUND ( 'NONE', #195, .T. ) ;
#90 = PLANE ( 'NONE',  #206 ) ;
#91 = DIRECTION ( 'NONE',  ( 0.000000000000000000, -2.048885995248197414E-16, 1.000000000000000000 ) ) ;
#92 = MECHANICAL_CONTEXT ( 'NONE', #197, 'mechanical' ) ;
#93 = CALENDAR_DATE ( 2021, 13, 7 ) ;
#94 = ORIENTED_EDGE ( 'NONE', *, *, #80, .F. ) ;
#95 = ORIENTED_EDGE ( 'NONE', *, *, #113, .T. ) ;
#96 = LINE ( 'NONE', #171, #182 ) ;
#97 = ORIENTED_EDGE ( 'NONE', *, *, #39, .T. ) ;
#98 = EDGE_CURVE ( 'NONE', #87, #149, #159, .T. ) ;
#99 = PRODUCT ( 'Web Model 47020_18715', 'Web Model 47020_18715', '', ( #92 ) ) ;
#100 = EDGE_LOOP ( 'NONE', ( #43, #3, #211, #12 ) ) ;
#101 = DIRECTION ( 'NONE',  ( -0.000000000000000000, 1.000000000000000000, 0.000000000000000000 ) ) ;
#102 = DATE_AND_TIME ( #185, #75 ) ;
#103 = DIRECTION ( 'NONE',  ( 1.000000000000000000, 0.000000000000000000, 0.000000000000000000 ) ) ;
#104 = CARTESIAN_POINT ( 'NONE',  ( 0.7500000000000000000, 6.349999999999997868, -6.349999999999999645 ) ) ;
#105 = VERTEX_POINT ( 'NONE', #141 ) ;
#106 = CARTESIAN_POINT ( 'NONE',  ( 0.7500000000000000000, 6.349999999999997868, 6.349999999999999645 ) ) ;
#107 = APPROVAL_STATUS ( 'not_yet_approved' ) ;
#108 = APPLICATION_CONTEXT ( 'configuration controlled 3d designs of mechanical parts and assemblies' ) ;
#109 = PRODUCT_DEFINITION ( 'UNKNOWN', '', #45, #13 ) ;
#110 = EDGE_LOOP ( 'NONE', ( #168, #30, #201, #187 ) ) ;
#111 = ORIENTED_EDGE ( 'NONE', *, *, #29, .T. ) ;
#112 = APPROVAL ( #216, 'UNSPECIFIED' ) ;
#113 = EDGE_CURVE ( 'NONE', #151, #11, #180, .T. ) ;
#114 = PERSON_AND_ORGANIZATION ( #173, #44 ) ;
#115 = FACE_OUTER_BOUND ( 'NONE', #100, .T. ) ;
#116 = APPROVAL ( #107, 'UNSPECIFIED' ) ;
#117 = CARTESIAN_POINT ( 'NONE',  ( 0.7500000000000000000, 6.349999999999997868, -6.349999999999999645 ) ) ;
#118 = LINE ( 'NONE', #236, #74 ) ;
#119 = CARTESIAN_POINT ( 'NONE',  ( 0.7500000000000000000, 0.000000000000000000, 0.000000000000000000 ) ) ;
#120 = PERSON_AND_ORGANIZATION_ROLE ( 'creator' ) ;
#121 = APPROVAL_PERSON_ORGANIZATION ( #114, #22, #88 ) ;
#122 = PLANE ( 'NONE',  #186 ) ;
#123 =( NAMED_UNIT ( * ) PLANE_ANGLE_UNIT ( ) SI_UNIT ( $, .RADIAN. ) );
#124 = DATE_AND_TIME ( #172, #225 ) ;
#125 = ORIENTED_EDGE ( 'NONE', *, *, #59, .F. ) ;
#126 = APPROVAL_DATE_TIME ( #176, #116 ) ;
#127 = DATE_AND_TIME ( #93, #137 ) ;
#128 = AXIS2_PLACEMENT_3D ( 'NONE', #119, #103, #19 ) ;
#129 = CC_DESIGN_PERSON_AND_ORGANIZATION_ASSIGNMENT ( #42, #73, ( #45 ) ) ;
#130 = FACE_OUTER_BOUND ( 'NONE', #26, .T. ) ;
#131 = CC_DESIGN_PERSON_AND_ORGANIZATION_ASSIGNMENT ( #160, #212, ( #5 ) ) ;
#132 = APPROVAL_PERSON_ORGANIZATION ( #227, #116, #64 ) ;
#133 = AXIS2_PLACEMENT_3D ( 'NONE', #85, #161, #237 ) ;
#134 = SECURITY_CLASSIFICATION_LEVEL ( 'unclassified' ) ;
#135 = DIRECTION ( 'NONE',  ( -1.000000000000000000, -0.000000000000000000, -0.000000000000000000 ) ) ;
#136 = ORIENTED_EDGE ( 'NONE', *, *, #1, .F. ) ;
#137 = LOCAL_TIME ( 10, 2, 10.00000000000000000, #192 ) ;
#138 =( GEOMETRIC_REPRESENTATION_CONTEXT ( 3 ) GLOBAL_UNCERTAINTY_ASSIGNED_CONTEXT ( ( #148 ) ) GLOBAL_UNIT_ASSIGNED_CONTEXT ( ( #179, #123, #143 ) ) REPRESENTATION_CONTEXT ( 'NONE', 'WORKASPACE' ) );
#139 = PLANE ( 'NONE',  #133 ) ;
#140 = LINE ( 'NONE', #230, #49 ) ;
#141 = CARTESIAN_POINT ( 'NONE',  ( 0.7500000000000000000, 6.349999999999997868, 6.349999999999999645 ) ) ;
#142 = AXIS2_PLACEMENT_3D ( 'NONE', #40, #35, #178 ) ;
#143 =( NAMED_UNIT ( * ) SI_UNIT ( $, .STERADIAN. ) SOLID_ANGLE_UNIT ( ) );
#144 = CC_DESIGN_DATE_AND_TIME_ASSIGNMENT ( #28, #156, ( #109 ) ) ;
#145 = VERTEX_POINT ( 'NONE', #38 ) ;
#146 = PRODUCT_RELATED_PRODUCT_CATEGORY ( 'detail', '', ( #99 ) ) ;
#147 = APPROVAL_PERSON_ORGANIZATION ( #83, #112, #232 ) ;
#148 = UNCERTAINTY_MEASURE_WITH_UNIT (LENGTH_MEASURE( 1.000000000000000082E-05 ), #179, 'distance_accuracy_value', 'NONE');
#149 = VERTEX_POINT ( 'NONE', #215 ) ;
#150 = AXIS2_PLACEMENT_3D ( 'NONE', #36, #18, #69 ) ;
#151 = VERTEX_POINT ( 'NONE', #50 ) ;
#152 = COORDINATED_UNIVERSAL_TIME_OFFSET ( 5, 0, .BEHIND. ) ;
#153 = FACE_OUTER_BOUND ( 'NONE', #24, .T. ) ;
#154 = DIRECTION ( 'NONE',  ( 0.000000000000000000, -1.000000000000000000, 2.048885995248197414E-16 ) ) ;
#155 = ORIENTED_EDGE ( 'NONE', *, *, #113, .F. ) ;
#156 = DATE_TIME_ROLE ( 'creation_date' ) ;
#157 = CARTESIAN_POINT ( 'NONE',  ( -0.7500000000000000000, 6.349999999999997868, -6.349999999999999645 ) ) ;
#158 = DIRECTION ( 'NONE',  ( 0.000000000000000000, -0.000000000000000000, 1.000000000000000000 ) ) ;
#159 = LINE ( 'NONE', #193, #14 ) ;
#160 = PERSON_AND_ORGANIZATION ( #173, #44 ) ;
#161 = DIRECTION ( 'NONE',  ( 0.000000000000000000, -1.000000000000000000, 0.000000000000000000 ) ) ;
#162 = VERTEX_POINT ( 'NONE', #66 ) ;
#163 = VECTOR ( 'NONE', #196, 1000.000000000000000 ) ;
#164 = CLOSED_SHELL ( 'NONE', ( #63, #72, #234, #61, #210, #48 ) ) ;
#165 = LINE ( 'NONE', #21, #163 ) ;
#166 = EDGE_CURVE ( 'NONE', #145, #149, #31, .T. ) ;
#167 = PERSON_AND_ORGANIZATION ( #173, #44 ) ;
#168 = ORIENTED_EDGE ( 'NONE', *, *, #1, .T. ) ;
#169 = FACE_OUTER_BOUND ( 'NONE', #110, .T. ) ;
#170 = CARTESIAN_POINT ( 'NONE',  ( 0.7500000000000000000, 6.349999999999997868, 6.349999999999999645 ) ) ;
#171 = CARTESIAN_POINT ( 'NONE',  ( -0.7500000000000000000, 6.349999999999997868, 6.349999999999999645 ) ) ;
#172 = CALENDAR_DATE ( 2021, 13, 7 ) ;
#173 = PERSON ( 'UNSPECIFIED', 'UNSPECIFIED', 'UNSPECIFIED', ('UNSPECIFIED'), ('UNSPECIFIED'), ('UNSPECIFIED') ) ;
#174 = PLANE ( 'NONE',  #128 ) ;
#175 = EDGE_LOOP ( 'NONE', ( #189, #155, #136, #97 ) ) ;
#176 = DATE_AND_TIME ( #25, #76 ) ;
#177 = DIRECTION ( 'NONE',  ( 0.000000000000000000, 0.000000000000000000, -1.000000000000000000 ) ) ;
#178 = DIRECTION ( 'NONE',  ( 0.000000000000000000, 0.000000000000000000, -1.000000000000000000 ) ) ;
#179 =( LENGTH_UNIT ( ) NAMED_UNIT ( * ) SI_UNIT ( .MILLI., .METRE. ) );
#180 = LINE ( 'NONE', #52, #81 ) ;
#181 = APPLICATION_PROTOCOL_DEFINITION ( 'international standard', 'config_control_design', 1994, #197 ) ;
#182 = VECTOR ( 'NONE', #229, 1000.000000000000000 ) ;
#183 = LINE ( 'NONE', #86, #200 ) ;
#184 = VERTEX_POINT ( 'NONE', #191 ) ;
#185 = CALENDAR_DATE ( 2021, 13, 7 ) ;
#186 = AXIS2_PLACEMENT_3D ( 'NONE', #4, #91, #219 ) ;
#187 = ORIENTED_EDGE ( 'NONE', *, *, #203, .T. ) ;
#188 = PLANE ( 'NONE',  #150 ) ;
#189 = ORIENTED_EDGE ( 'NONE', *, *, #8, .T. ) ;
#190 = DATE_TIME_ROLE ( 'classification_date' ) ;
#191 = CARTESIAN_POINT ( 'NONE',  ( 0.7500000000000000000, -6.350000000000001421, -6.350000000000002309 ) ) ;
#192 = COORDINATED_UNIVERSAL_TIME_OFFSET ( 5, 0, .BEHIND. ) ;
#193 = CARTESIAN_POINT ( 'NONE',  ( 0.7500000000000000000, 6.349999999999997868, -6.349999999999999645 ) ) ;
#194 = PLANE ( 'NONE',  #142 ) ;
#195 = EDGE_LOOP ( 'NONE', ( #54, #62, #94, #111 ) ) ;
#196 = DIRECTION ( 'NONE',  ( -0.000000000000000000, -0.000000000000000000, 1.000000000000000000 ) ) ;
#197 = APPLICATION_CONTEXT ( 'configuration controlled 3d designs of mechanical parts and assemblies' ) ;
#198 = DIRECTION ( 'NONE',  ( 1.000000000000000000, 0.000000000000000000, 0.000000000000000000 ) ) ;
#199 = VECTOR ( 'NONE', #177, 1000.000000000000000 ) ;
#200 = VECTOR ( 'NONE', #214, 1000.000000000000000 ) ;
#201 = ORIENTED_EDGE ( 'NONE', *, *, #80, .T. ) ;
#202 = CC_DESIGN_PERSON_AND_ORGANIZATION_ASSIGNMENT ( #208, #120, ( #45 ) ) ;
#203 = EDGE_CURVE ( 'NONE', #87, #105, #183, .T. ) ;
#204 = ORIENTED_EDGE ( 'NONE', *, *, #17, .T. ) ;
#205 = APPROVAL_DATE_TIME ( #124, #112 ) ;
#206 = AXIS2_PLACEMENT_3D ( 'NONE', #213, #101, #158 ) ;
#207 = VECTOR ( 'NONE', #2, 1000.000000000000000 ) ;
#208 = PERSON_AND_ORGANIZATION ( #173, #44 ) ;
#209 = CARTESIAN_POINT ( 'NONE',  ( -0.7500000000000000000, -6.350000000000001421, 6.350000000000002309 ) ) ;
#210 = ADVANCED_FACE ( 'NONE', ( #169 ), #174, .T. ) ;
#211 = ORIENTED_EDGE ( 'NONE', *, *, #203, .F. ) ;
#212 = PERSON_AND_ORGANIZATION_ROLE ( 'classification_officer' ) ;
#213 = CARTESIAN_POINT ( 'NONE',  ( 0.7500000000000000000, -6.350000000000001421, 6.350000000000002309 ) ) ;
#214 = DIRECTION ( 'NONE',  ( -0.000000000000000000, -0.000000000000000000, 1.000000000000000000 ) ) ;
#215 = CARTESIAN_POINT ( 'NONE',  ( -0.7500000000000000000, 6.349999999999997868, -6.349999999999999645 ) ) ;
#216 = APPROVAL_STATUS ( 'not_yet_approved' ) ;
#217 = VECTOR ( 'NONE', #53, 1000.000000000000000 ) ;
#218 = CC_DESIGN_SECURITY_CLASSIFICATION ( #5, ( #45 ) ) ;
#219 = DIRECTION ( 'NONE',  ( 0.000000000000000000, -1.000000000000000000, -2.048885995248197414E-16 ) ) ;
#220 = PERSON_AND_ORGANIZATION_ROLE ( 'design_owner' ) ;
#221 = CC_DESIGN_PERSON_AND_ORGANIZATION_ASSIGNMENT ( #79, #51, ( #109 ) ) ;
#222 = VECTOR ( 'NONE', #233, 1000.000000000000000 ) ;
#223 = LOCAL_TIME ( 10, 2, 10.00000000000000000, #231 ) ;
#224 = EDGE_CURVE ( 'NONE', #149, #162, #165, .T. ) ;
#225 = LOCAL_TIME ( 10, 2, 10.00000000000000000, #33 ) ;
#226 = ADVANCED_BREP_SHAPE_REPRESENTATION ( 'Web Model 47020_18715', ( #77, #82 ), #138 ) ;
#227 = PERSON_AND_ORGANIZATION ( #173, #44 ) ;
#228 = CC_DESIGN_APPROVAL ( #116, ( #109 ) ) ;
#229 = DIRECTION ( 'NONE',  ( 0.000000000000000000, -1.000000000000000000, 2.048885995248197414E-16 ) ) ;
#230 = CARTESIAN_POINT ( 'NONE',  ( 0.7500000000000000000, -6.350000000000001421, -6.350000000000002309 ) ) ;
#231 = COORDINATED_UNIVERSAL_TIME_OFFSET ( 5, 0, .BEHIND. ) ;
#232 = APPROVAL_ROLE ( '' ) ;
#233 = DIRECTION ( 'NONE',  ( -0.000000000000000000, 1.000000000000000000, 2.048885995248197414E-16 ) ) ;
#234 = ADVANCED_FACE ( 'NONE', ( #89 ), #122, .F. ) ;
#235 = VECTOR ( 'NONE', #154, 1000.000000000000000 ) ;
#236 = CARTESIAN_POINT ( 'NONE',  ( 0.7500000000000000000, -6.350000000000001421, 6.350000000000002309 ) ) ;
#237 = DIRECTION ( 'NONE',  ( 0.000000000000000000, -0.000000000000000000, -1.000000000000000000 ) ) ;
ENDSEC;
END-ISO-10303-21;
