ISO-10303-21;
HEADER;
FILE_DESCRIPTION (( 'STEP AP214' ),
    '1' );
FILE_NAME ('3370-E0W.STEP',
    '2009-12-21T16:58:08',
    ( ' ' ),
    ( ' ' ),
    'SwSTEP 2.0',
    'SolidWorks 2009',
    '' );
FILE_SCHEMA (( 'AUTOMOTIVE_DESIGN' ));
ENDSEC;

DATA;
#1 =( NAMED_UNIT ( * ) SI_UNIT ( $, .STERADIAN. ) SOLID_ANGLE_UNIT ( ) );
#2 = STYLED_ITEM ( 'NONE', ( #47 ), #83 ) ;
#3 =( NAMED_UNIT ( * ) SI_UNIT ( $, .STERADIAN. ) SOLID_ANGLE_UNIT ( ) );
#4 =( NAMED_UNIT ( * ) PLANE_ANGLE_UNIT ( ) SI_UNIT ( $, .RADIAN. ) );
#5 =( LENGTH_UNIT ( ) NAMED_UNIT ( * ) SI_UNIT ( .MILLI., .METRE. ) );
#6 = CYLINDRICAL_SURFACE ( 'NONE', #8, 12.70000000000000800 ) ;
#7 = CARTESIAN_POINT ( 'NONE',  ( 0.0000000000000000000, 12.70000000000014500, -0.9985808762259561500 ) ) ;
#8 = AXIS2_PLACEMENT_3D ( 'NONE', #80, #79, #78 ) ;
#9 = VERTEX_POINT ( 'NONE', #135 ) ;
#10 = EDGE_CURVE ( 'NONE', #30, #13, #45, .T. ) ;
#11 = ORIENTED_EDGE ( 'NONE', *, *, #12, .F. ) ;
#12 = EDGE_CURVE ( 'NONE', #13, #119, #41, .T. ) ;
#13 = VERTEX_POINT ( 'NONE', #90 ) ;
#14 = MECHANICAL_DESIGN_GEOMETRIC_PRESENTATION_REPRESENTATION (  '', ( #16 ), #127 ) ;
#15 = PRESENTATION_LAYER_ASSIGNMENT (  '', '', ( #16 ) ) ;
#16 = STYLED_ITEM ( 'NONE', ( #17 ), #23 ) ;
#17 = PRESENTATION_STYLE_ASSIGNMENT (( #18 ) ) ;
#18 = SURFACE_STYLE_USAGE ( .BOTH. , #19 ) ;
#19 = SURFACE_SIDE_STYLE ('',( #20 ) ) ;
#20 = SURFACE_STYLE_FILL_AREA ( #21 ) ;
#21 = FILL_AREA_STYLE ('',( #22 ) ) ;
#22 = FILL_AREA_STYLE_COLOUR ( '', #88 ) ;
#23 = ADVANCED_FACE ( 'NONE', ( #89 ), #6, .T. ) ;
#24 = EDGE_LOOP ( 'NONE', ( #38, #39, #108, #109, #107, #101 ) ) ;
#25 = UNCERTAINTY_MEASURE_WITH_UNIT (LENGTH_MEASURE( 1.000000000000000100E-005 ), #140, 'distance_accuracy_value', 'NONE');
#26 =( NAMED_UNIT ( * ) SI_UNIT ( $, .STERADIAN. ) SOLID_ANGLE_UNIT ( ) );
#27 = EDGE_LOOP ( 'NONE', ( #128, #129, #131, #11, #143, #102 ) ) ;
#28 = VERTEX_POINT ( 'NONE', #7 ) ;
#29 = ORIENTED_EDGE ( 'NONE', *, *, #123, .T. ) ;
#30 = VERTEX_POINT ( 'NONE', #77 ) ;
#31 = ORIENTED_EDGE ( 'NONE', *, *, #32, .T. ) ;
#32 = EDGE_CURVE ( 'NONE', #124, #33, #117, .T. ) ;
#33 = VERTEX_POINT ( 'NONE', #112 ) ;
#34 =( GEOMETRIC_REPRESENTATION_CONTEXT ( 3 ) GLOBAL_UNCERTAINTY_ASSIGNED_CONTEXT ( ( #35 ) ) GLOBAL_UNIT_ASSIGNED_CONTEXT ( ( #5, #4, #3 ) ) REPRESENTATION_CONTEXT ( 'NONE', 'WORKASPACE' ) );
#35 = UNCERTAINTY_MEASURE_WITH_UNIT (LENGTH_MEASURE( 1.000000000000000100E-005 ), #5, 'distance_accuracy_value', 'NONE');
#36 = VERTEX_POINT ( 'NONE', #111 ) ;
#37 = ORIENTED_EDGE ( 'NONE', *, *, #160, .T. ) ;
#38 = ORIENTED_EDGE ( 'NONE', *, *, #130, .F. ) ;
#39 = ORIENTED_EDGE ( 'NONE', *, *, #86, .T. ) ;
#40 = ADVANCED_FACE ( 'NONE', ( #110 ), #96, .T. ) ;
#41 = CIRCLE ( 'NONE', #159, 12.70000000000001000 ) ;
#42 = DIRECTION ( 'NONE',  ( -0.0000000000000000000, -0.0000000000000000000, 1.000000000000000000 ) ) ;
#43 = VECTOR ( 'NONE', #42, 1000.000000000000000 ) ;
#44 = CARTESIAN_POINT ( 'NONE',  ( 12.70000000000000800, -6.274098110942214900E-015, 6.491000388932064000 ) ) ;
#45 = LINE ( 'NONE', #44, #43 ) ;
#46 = EDGE_CURVE ( 'NONE', #119, #36, #95, .T. ) ;
#47 = PRESENTATION_STYLE_ASSIGNMENT (( #48 ) ) ;
#48 = SURFACE_STYLE_USAGE ( .BOTH. , #49 ) ;
#49 = SURFACE_SIDE_STYLE ('',( #50 ) ) ;
#50 = SURFACE_STYLE_FILL_AREA ( #51 ) ;
#51 = FILL_AREA_STYLE ('',( #52 ) ) ;
#52 = FILL_AREA_STYLE_COLOUR ( '', #53 ) ;
#53 = COLOUR_RGB ( '',0.9568627450980391500, 0.9490196078431372100, 0.9607843137254902200 ) ;
#54 = FACE_OUTER_BOUND ( 'NONE', #136, .T. ) ;
#55 =( GEOMETRIC_REPRESENTATION_CONTEXT ( 3 ) GLOBAL_UNCERTAINTY_ASSIGNED_CONTEXT ( ( #56 ) ) GLOBAL_UNIT_ASSIGNED_CONTEXT ( ( #59, #58, #57 ) ) REPRESENTATION_CONTEXT ( 'NONE', 'WORKASPACE' ) );
#56 = UNCERTAINTY_MEASURE_WITH_UNIT (LENGTH_MEASURE( 1.000000000000000100E-005 ), #59, 'distance_accuracy_value', 'NONE');
#57 =( NAMED_UNIT ( * ) SI_UNIT ( $, .STERADIAN. ) SOLID_ANGLE_UNIT ( ) );
#58 =( NAMED_UNIT ( * ) PLANE_ANGLE_UNIT ( ) SI_UNIT ( $, .RADIAN. ) );
#59 =( LENGTH_UNIT ( ) NAMED_UNIT ( * ) SI_UNIT ( .MILLI., .METRE. ) );
#60 = MECHANICAL_DESIGN_GEOMETRIC_PRESENTATION_REPRESENTATION (  '', ( #62 ), #55 ) ;
#61 = PRESENTATION_LAYER_ASSIGNMENT (  '', '', ( #62 ) ) ;
#62 = STYLED_ITEM ( 'NONE', ( #63 ), #81 ) ;
#63 = PRESENTATION_STYLE_ASSIGNMENT (( #64 ) ) ;
#64 = SURFACE_STYLE_USAGE ( .BOTH. , #65 ) ;
#65 = SURFACE_SIDE_STYLE ('',( #66 ) ) ;
#66 = SURFACE_STYLE_FILL_AREA ( #67 ) ;
#67 = FILL_AREA_STYLE ('',( #74 ) ) ;
#68 = COLOUR_RGB ( '',0.7960784313725489700, 0.8235294117647058400, 0.9372549019607843100 ) ;
#69 = CARTESIAN_POINT ( 'NONE',  ( -12.70000000000001200, -4.718848041587794100E-015, 0.9985808762259518200 ) ) ;
#70 = DIRECTION ( 'NONE',  ( 0.0000000000000000000, 0.0000000000000000000, -1.000000000000000000 ) ) ;
#71 = DIRECTION ( 'NONE',  ( 1.000000000000000000, 0.0000000000000000000, 0.0000000000000000000 ) ) ;
#72 = CARTESIAN_POINT ( 'NONE',  ( 0.0000000000000000000, 3.749194943249665400E-014, -307.3600000000000100 ) ) ;
#73 = AXIS2_PLACEMENT_3D ( 'NONE', #72, #71, #70 ) ;
#74 = FILL_AREA_STYLE_COLOUR ( '', #68 ) ;
#75 = ORIENTED_EDGE ( 'NONE', *, *, #126, .T. ) ;
#76 = VERTEX_POINT ( 'NONE', #69 ) ;
#77 = CARTESIAN_POINT ( 'NONE',  ( 12.70000000000000600, -6.274098110942214900E-015, -0.9985808762259604800 ) ) ;
#78 = DIRECTION ( 'NONE',  ( 1.000000000000000000, 0.0000000000000000000, 0.0000000000000000000 ) ) ;
#79 = DIRECTION ( 'NONE',  ( -0.0000000000000000000, -0.0000000000000000000, 1.000000000000000000 ) ) ;
#80 = CARTESIAN_POINT ( 'NONE',  ( 0.0000000000000000000, -6.274098110942214900E-015, 6.491000388932064000 ) ) ;
#81 = MANIFOLD_SOLID_BREP ( 'NONE', #141 ) ;
#82 = UNCERTAINTY_MEASURE_WITH_UNIT (LENGTH_MEASURE( 1.000000000000000100E-005 ), #284, 'distance_accuracy_value', 'NONE');
#83 = ADVANCED_FACE ( 'NONE', ( #54 ), #175, .T. ) ;
#84 = EDGE_CURVE ( 'NONE', #28, #85, #282, .T. ) ;
#85 = VERTEX_POINT ( 'NONE', #278 ) ;
#86 = EDGE_CURVE ( 'NONE', #85, #33, #247, .T. ) ;
#87 = ORIENTED_EDGE ( 'NONE', *, *, #84, .F. ) ;
#88 = COLOUR_RGB ( '',0.9568627450980391500, 0.9490196078431372100, 0.9607843137254902200 ) ;
#89 = FACE_OUTER_BOUND ( 'NONE', #24, .T. ) ;
#90 = CARTESIAN_POINT ( 'NONE',  ( 12.70000000000001000, -6.274098110942214900E-015, 0.9985808762259518200 ) ) ;
#91 = DIRECTION ( 'NONE',  ( 1.000000000000000000, 0.0000000000000000000, 0.0000000000000000000 ) ) ;
#92 = DIRECTION ( 'NONE',  ( -0.0000000000000000000, -0.0000000000000000000, 1.000000000000000000 ) ) ;
#93 = CARTESIAN_POINT ( 'NONE',  ( 0.0000000000000000000, -6.274098110942214900E-015, 6.491000388932064000 ) ) ;
#94 = AXIS2_PLACEMENT_3D ( 'NONE', #93, #92, #91 ) ;
#95 = CIRCLE ( 'NONE', #73, 308.6199999999999500 ) ;
#96 = CYLINDRICAL_SURFACE ( 'NONE', #94, 12.70000000000000800 ) ;
#97 = ORIENTED_EDGE ( 'NONE', *, *, #46, .T. ) ;
#98 = EDGE_CURVE ( 'NONE', #9, #13, #236, .T. ) ;
#99 = ORIENTED_EDGE ( 'NONE', *, *, #12, .T. ) ;
#100 = ORIENTED_EDGE ( 'NONE', *, *, #160, .F. ) ;
#101 = ORIENTED_EDGE ( 'NONE', *, *, #126, .F. ) ;
#102 = ORIENTED_EDGE ( 'NONE', *, *, #103, .T. ) ;
#103 = EDGE_CURVE ( 'NONE', #30, #28, #261, .T. ) ;
#104 = ADVANCED_FACE ( 'NONE', ( #262 ), #177, .T. ) ;
#105 = ORIENTED_EDGE ( 'NONE', *, *, #98, .T. ) ;
#106 = ADVANCED_FACE ( 'NONE', ( #239 ), #203, .T. ) ;
#107 = ORIENTED_EDGE ( 'NONE', *, *, #98, .F. ) ;
#108 = ORIENTED_EDGE ( 'NONE', *, *, #134, .T. ) ;
#109 = ORIENTED_EDGE ( 'NONE', *, *, #10, .T. ) ;
#110 = FACE_OUTER_BOUND ( 'NONE', #27, .T. ) ;
#111 = CARTESIAN_POINT ( 'NONE',  ( 0.0000000000000000000, 5.638885007832975900E-014, 1.259999999999983400 ) ) ;
#112 = CARTESIAN_POINT ( 'NONE',  ( -1.555250069354437800E-015, -12.70000000000019100, -0.9985808762259561500 ) ) ;
#113 = DIRECTION ( 'NONE',  ( -1.224606353822377300E-016, -1.000000000000000000, 0.0000000000000000000 ) ) ;
#114 = DIRECTION ( 'NONE',  ( -1.000000000000000000, 1.224606353822377300E-016, 0.0000000000000000000 ) ) ;
#115 = CARTESIAN_POINT ( 'NONE',  ( 0.0000000000000000000, -3.778953860468945300E-014, 307.3600000000000100 ) ) ;
#116 = AXIS2_PLACEMENT_3D ( 'NONE', #115, #114, #113 ) ;
#117 = CIRCLE ( 'NONE', #116, 308.6200000000000000 ) ;
#118 = ORIENTED_EDGE ( 'NONE', *, *, #86, .F. ) ;
#119 = VERTEX_POINT ( 'NONE', #202 ) ;
#120 = ORIENTED_EDGE ( 'NONE', *, *, #138, .T. ) ;
#121 = EDGE_LOOP ( 'NONE', ( #122, #31, #118, #87 ) ) ;
#122 = ORIENTED_EDGE ( 'NONE', *, *, #123, .F. ) ;
#123 = EDGE_CURVE ( 'NONE', #124, #28, #269, .T. ) ;
#124 = VERTEX_POINT ( 'NONE', #264 ) ;
#125 = ORIENTED_EDGE ( 'NONE', *, *, #46, .F. ) ;
#126 = EDGE_CURVE ( 'NONE', #76, #9, #233, .T. ) ;
#127 =( GEOMETRIC_REPRESENTATION_CONTEXT ( 3 ) GLOBAL_UNCERTAINTY_ASSIGNED_CONTEXT ( ( #25 ) ) GLOBAL_UNIT_ASSIGNED_CONTEXT ( ( #140, #139, #26 ) ) REPRESENTATION_CONTEXT ( 'NONE', 'WORKASPACE' ) );
#128 = ORIENTED_EDGE ( 'NONE', *, *, #84, .T. ) ;
#129 = ORIENTED_EDGE ( 'NONE', *, *, #130, .T. ) ;
#130 = EDGE_CURVE ( 'NONE', #85, #76, #234, .T. ) ;
#131 = ORIENTED_EDGE ( 'NONE', *, *, #138, .F. ) ;
#132 = ORIENTED_EDGE ( 'NONE', *, *, #103, .F. ) ;
#133 = ORIENTED_EDGE ( 'NONE', *, *, #134, .F. ) ;
#134 = EDGE_CURVE ( 'NONE', #33, #30, #171, .T. ) ;
#135 = CARTESIAN_POINT ( 'NONE',  ( -1.555250069354442700E-015, -12.70000000000015400, 0.9985808762259518200 ) ) ;
#136 = EDGE_LOOP ( 'NONE', ( #137, #29, #132, #133 ) ) ;
#137 = ORIENTED_EDGE ( 'NONE', *, *, #32, .F. ) ;
#138 = EDGE_CURVE ( 'NONE', #119, #76, #212, .T. ) ;
#139 =( NAMED_UNIT ( * ) PLANE_ANGLE_UNIT ( ) SI_UNIT ( $, .RADIAN. ) );
#140 =( LENGTH_UNIT ( ) NAMED_UNIT ( * ) SI_UNIT ( .MILLI., .METRE. ) );
#141 = CLOSED_SHELL ( 'NONE', ( #154, #40, #104, #83, #23, #106 ) ) ;
#142 = EDGE_LOOP ( 'NONE', ( #100, #105, #99, #97 ) ) ;
#143 = ORIENTED_EDGE ( 'NONE', *, *, #10, .F. ) ;
#144 = MECHANICAL_DESIGN_GEOMETRIC_PRESENTATION_REPRESENTATION (  '', ( #146 ), #34 ) ;
#145 = PRESENTATION_LAYER_ASSIGNMENT (  '', '', ( #146 ) ) ;
#146 = STYLED_ITEM ( 'NONE', ( #147 ), #40 ) ;
#147 = PRESENTATION_STYLE_ASSIGNMENT (( #148 ) ) ;
#148 = SURFACE_STYLE_USAGE ( .BOTH. , #149 ) ;
#149 = SURFACE_SIDE_STYLE ('',( #150 ) ) ;
#150 = SURFACE_STYLE_FILL_AREA ( #151 ) ;
#151 = FILL_AREA_STYLE ('',( #152 ) ) ;
#152 = FILL_AREA_STYLE_COLOUR ( '', #153 ) ;
#153 = COLOUR_RGB ( '',0.9568627450980391500, 0.9490196078431372100, 0.9607843137254902200 ) ;
#154 = ADVANCED_FACE ( 'NONE', ( #207 ), #180, .T. ) ;
#155 = EDGE_LOOP ( 'NONE', ( #75, #37, #125, #120 ) ) ;
#156 = DIRECTION ( 'NONE',  ( 1.000000000000000000, 0.0000000000000000000, 0.0000000000000000000 ) ) ;
#157 = DIRECTION ( 'NONE',  ( -0.0000000000000000000, -0.0000000000000000000, 1.000000000000000000 ) ) ;
#158 = CARTESIAN_POINT ( 'NONE',  ( 0.0000000000000000000, -6.274098110942214900E-015, 0.9985808762259518200 ) ) ;
#159 = AXIS2_PLACEMENT_3D ( 'NONE', #158, #157, #156 ) ;
#160 = EDGE_CURVE ( 'NONE', #9, #36, #197, .T. ) ;
#161 = PRESENTATION_LAYER_ASSIGNMENT (  '', '', ( #2 ) ) ;
#162 = MECHANICAL_DESIGN_GEOMETRIC_PRESENTATION_REPRESENTATION (  '', ( #2 ), #226 ) ;
#163 = CARTESIAN_POINT ( 'NONE',  ( 0.0000000000000000000, -6.274098110942214900E-015, -0.9985808762259604800 ) ) ;
#164 =( LENGTH_UNIT ( ) NAMED_UNIT ( * ) SI_UNIT ( .MILLI., .METRE. ) );
#165 = MECHANICAL_DESIGN_GEOMETRIC_PRESENTATION_REPRESENTATION (  '', ( #249 ), #178 ) ;
#166 =( NAMED_UNIT ( * ) SI_UNIT ( $, .STERADIAN. ) SOLID_ANGLE_UNIT ( ) );
#167 = UNCERTAINTY_MEASURE_WITH_UNIT (LENGTH_MEASURE( 1.000000000000000100E-005 ), #184, 'distance_accuracy_value', 'NONE');
#168 = DIRECTION ( 'NONE',  ( -0.0000000000000000000, -0.0000000000000000000, 1.000000000000000000 ) ) ;
#169 = CARTESIAN_POINT ( 'NONE',  ( 0.0000000000000000000, -6.274098110942214900E-015, -0.9985808762259604800 ) ) ;
#170 = AXIS2_PLACEMENT_3D ( 'NONE', #169, #168, #214 ) ;
#171 = CIRCLE ( 'NONE', #170, 12.70000000000000600 ) ;
#172 = DIRECTION ( 'NONE',  ( -0.0000000000000000000, -0.0000000000000000000, 1.000000000000000000 ) ) ;
#173 = VECTOR ( 'NONE', #172, 1000.000000000000000 ) ;
#174 = CARTESIAN_POINT ( 'NONE',  ( -12.70000000000000800, -4.718848041587794900E-015, 6.491000388932064000 ) ) ;
#175 = SPHERICAL_SURFACE ( 'NONE', #225, 308.6200000000000000 ) ;
#176 = AXIS2_PLACEMENT_3D ( 'NONE', #238, #237, #224 ) ;
#177 = SPHERICAL_SURFACE ( 'NONE', #176, 308.6200000000000000 ) ;
#178 =( GEOMETRIC_REPRESENTATION_CONTEXT ( 3 ) GLOBAL_UNCERTAINTY_ASSIGNED_CONTEXT ( ( #188 ) ) GLOBAL_UNIT_ASSIGNED_CONTEXT ( ( #164, #228, #227 ) ) REPRESENTATION_CONTEXT ( 'NONE', 'WORKASPACE' ) );
#179 = CARTESIAN_POINT ( 'NONE',  ( 0.0000000000000000000, 3.749194943249665400E-014, -307.3600000000000100 ) ) ;
#180 = SPHERICAL_SURFACE ( 'NONE', #196, 308.6200000000000000 ) ;
#181 =( GEOMETRIC_REPRESENTATION_CONTEXT ( 3 ) GLOBAL_UNCERTAINTY_ASSIGNED_CONTEXT ( ( #182 ) ) GLOBAL_UNIT_ASSIGNED_CONTEXT ( ( #271, #270, #183 ) ) REPRESENTATION_CONTEXT ( 'NONE', 'WORKASPACE' ) );
#182 = UNCERTAINTY_MEASURE_WITH_UNIT (LENGTH_MEASURE( 1.000000000000000100E-005 ), #271, 'distance_accuracy_value', 'NONE');
#183 =( NAMED_UNIT ( * ) SI_UNIT ( $, .STERADIAN. ) SOLID_ANGLE_UNIT ( ) );
#184 =( LENGTH_UNIT ( ) NAMED_UNIT ( * ) SI_UNIT ( .MILLI., .METRE. ) );
#185 = DIRECTION ( 'NONE',  ( 1.000000000000000000, 0.0000000000000000000, 0.0000000000000000000 ) ) ;
#186 = DIRECTION ( 'NONE',  ( -0.0000000000000000000, -0.0000000000000000000, 1.000000000000000000 ) ) ;
#187 = CARTESIAN_POINT ( 'NONE',  ( 0.0000000000000000000, -6.274098110942214900E-015, 0.9985808762259518200 ) ) ;
#188 = UNCERTAINTY_MEASURE_WITH_UNIT (LENGTH_MEASURE( 1.000000000000000100E-005 ), #164, 'distance_accuracy_value', 'NONE');
#189 = DIRECTION ( 'NONE',  ( 0.0000000000000000000, 1.000000000000000000, 0.0000000000000000000 ) ) ;
#190 = DIRECTION ( 'NONE',  ( -1.000000000000000000, 0.0000000000000000000, 0.0000000000000000000 ) ) ;
#191 = CARTESIAN_POINT ( 'NONE',  ( 0.0000000000000000000, -3.778953860468945300E-014, 307.3600000000000100 ) ) ;
#192 = CARTESIAN_POINT ( 'NONE',  ( 0.0000000000000000000, 3.749194943249665400E-014, -307.3600000000000100 ) ) ;
#193 = AXIS2_PLACEMENT_3D ( 'NONE', #192, #286, #285 ) ;
#194 = DIRECTION ( 'NONE',  ( 0.0000000000000000000, 1.000000000000000000, 0.0000000000000000000 ) ) ;
#195 = DIRECTION ( 'NONE',  ( -1.000000000000000000, 0.0000000000000000000, 0.0000000000000000000 ) ) ;
#196 = AXIS2_PLACEMENT_3D ( 'NONE', #179, #195, #194 ) ;
#197 = CIRCLE ( 'NONE', #193, 308.6200000000000000 ) ;
#198 = DIRECTION ( 'NONE',  ( 0.0000000000000000000, 1.000000000000000000, 0.0000000000000000000 ) ) ;
#199 = DIRECTION ( 'NONE',  ( -1.000000000000000000, 0.0000000000000000000, 0.0000000000000000000 ) ) ;
#200 = CARTESIAN_POINT ( 'NONE',  ( 0.0000000000000000000, 3.749194943249665400E-014, -307.3600000000000100 ) ) ;
#201 = AXIS2_PLACEMENT_3D ( 'NONE', #200, #199, #198 ) ;
#202 = CARTESIAN_POINT ( 'NONE',  ( 0.0000000000000000000, 12.70000000000018600, 0.9985808762259518200 ) ) ;
#203 = SPHERICAL_SURFACE ( 'NONE', #201, 308.6200000000000000 ) ;
#204 = SURFACE_STYLE_FILL_AREA ( #205 ) ;
#205 = FILL_AREA_STYLE ('',( #213 ) ) ;
#206 = COLOUR_RGB ( '',0.9568627450980391500, 0.9490196078431372100, 0.9607843137254902200 ) ;
#207 = FACE_OUTER_BOUND ( 'NONE', #155, .T. ) ;
#208 = DIRECTION ( 'NONE',  ( 1.000000000000000000, 0.0000000000000000000, 0.0000000000000000000 ) ) ;
#209 = DIRECTION ( 'NONE',  ( -0.0000000000000000000, -0.0000000000000000000, 1.000000000000000000 ) ) ;
#210 = CARTESIAN_POINT ( 'NONE',  ( 0.0000000000000000000, -6.274098110942214900E-015, 0.9985808762259518200 ) ) ;
#211 = AXIS2_PLACEMENT_3D ( 'NONE', #210, #209, #208 ) ;
#212 = CIRCLE ( 'NONE', #211, 12.70000000000001000 ) ;
#213 = FILL_AREA_STYLE_COLOUR ( '', #206 ) ;
#214 = DIRECTION ( 'NONE',  ( 1.000000000000000000, 0.0000000000000000000, 0.0000000000000000000 ) ) ;
#215 = MECHANICAL_DESIGN_GEOMETRIC_PRESENTATION_REPRESENTATION (  '', ( #217 ), #241 ) ;
#216 = PRESENTATION_LAYER_ASSIGNMENT (  '', '', ( #217 ) ) ;
#217 = STYLED_ITEM ( 'NONE', ( #218 ), #106 ) ;
#218 = PRESENTATION_STYLE_ASSIGNMENT (( #219 ) ) ;
#219 = SURFACE_STYLE_USAGE ( .BOTH. , #220 ) ;
#220 = SURFACE_SIDE_STYLE ('',( #221 ) ) ;
#221 = SURFACE_STYLE_FILL_AREA ( #222 ) ;
#222 = FILL_AREA_STYLE ('',( #240 ) ) ;
#223 = COLOUR_RGB ( '',0.9568627450980391500, 0.9490196078431372100, 0.9607843137254902200 ) ;
#224 = DIRECTION ( 'NONE',  ( 0.0000000000000000000, 1.000000000000000000, 0.0000000000000000000 ) ) ;
#225 = AXIS2_PLACEMENT_3D ( 'NONE', #191, #190, #189 ) ;
#226 =( GEOMETRIC_REPRESENTATION_CONTEXT ( 3 ) GLOBAL_UNCERTAINTY_ASSIGNED_CONTEXT ( ( #167 ) ) GLOBAL_UNIT_ASSIGNED_CONTEXT ( ( #184, #263, #166 ) ) REPRESENTATION_CONTEXT ( 'NONE', 'WORKASPACE' ) );
#227 =( NAMED_UNIT ( * ) SI_UNIT ( $, .STERADIAN. ) SOLID_ANGLE_UNIT ( ) );
#228 =( NAMED_UNIT ( * ) PLANE_ANGLE_UNIT ( ) SI_UNIT ( $, .RADIAN. ) );
#229 = DIRECTION ( 'NONE',  ( 1.000000000000000000, 0.0000000000000000000, 0.0000000000000000000 ) ) ;
#230 = DIRECTION ( 'NONE',  ( -0.0000000000000000000, -0.0000000000000000000, 1.000000000000000000 ) ) ;
#231 = CARTESIAN_POINT ( 'NONE',  ( 0.0000000000000000000, -6.274098110942214900E-015, 0.9985808762259518200 ) ) ;
#232 = AXIS2_PLACEMENT_3D ( 'NONE', #231, #230, #229 ) ;
#233 = CIRCLE ( 'NONE', #232, 12.70000000000001000 ) ;
#234 = LINE ( 'NONE', #174, #173 ) ;
#235 = AXIS2_PLACEMENT_3D ( 'NONE', #187, #186, #185 ) ;
#236 = CIRCLE ( 'NONE', #235, 12.70000000000001000 ) ;
#237 = DIRECTION ( 'NONE',  ( -1.000000000000000000, 0.0000000000000000000, 0.0000000000000000000 ) ) ;
#238 = CARTESIAN_POINT ( 'NONE',  ( 0.0000000000000000000, -3.778953860468945300E-014, 307.3600000000000100 ) ) ;
#239 = FACE_OUTER_BOUND ( 'NONE', #142, .T. ) ;
#240 = FILL_AREA_STYLE_COLOUR ( '', #223 ) ;
#241 =( GEOMETRIC_REPRESENTATION_CONTEXT ( 3 ) GLOBAL_UNCERTAINTY_ASSIGNED_CONTEXT ( ( #242 ) ) GLOBAL_UNIT_ASSIGNED_CONTEXT ( ( #289, #288, #243 ) ) REPRESENTATION_CONTEXT ( 'NONE', 'WORKASPACE' ) );
#242 = UNCERTAINTY_MEASURE_WITH_UNIT (LENGTH_MEASURE( 1.000000000000000100E-005 ), #289, 'distance_accuracy_value', 'NONE');
#243 =( NAMED_UNIT ( * ) SI_UNIT ( $, .STERADIAN. ) SOLID_ANGLE_UNIT ( ) );
#244 = DIRECTION ( 'NONE',  ( 1.000000000000000000, 0.0000000000000000000, 0.0000000000000000000 ) ) ;
#245 = DIRECTION ( 'NONE',  ( -0.0000000000000000000, -0.0000000000000000000, 1.000000000000000000 ) ) ;
#246 = AXIS2_PLACEMENT_3D ( 'NONE', #163, #245, #244 ) ;
#247 = CIRCLE ( 'NONE', #246, 12.70000000000000600 ) ;
#248 = PRESENTATION_LAYER_ASSIGNMENT (  '', '', ( #249 ) ) ;
#249 = STYLED_ITEM ( 'NONE', ( #250 ), #104 ) ;
#250 = PRESENTATION_STYLE_ASSIGNMENT (( #251 ) ) ;
#251 = SURFACE_STYLE_USAGE ( .BOTH. , #252 ) ;
#252 = SURFACE_SIDE_STYLE ('',( #253 ) ) ;
#253 = SURFACE_STYLE_FILL_AREA ( #254 ) ;
#254 = FILL_AREA_STYLE ('',( #255 ) ) ;
#255 = FILL_AREA_STYLE_COLOUR ( '', #256 ) ;
#256 = COLOUR_RGB ( '',0.9568627450980391500, 0.9490196078431372100, 0.9607843137254902200 ) ;
#257 = DIRECTION ( 'NONE',  ( 1.000000000000000000, 0.0000000000000000000, 0.0000000000000000000 ) ) ;
#258 = DIRECTION ( 'NONE',  ( -0.0000000000000000000, -0.0000000000000000000, 1.000000000000000000 ) ) ;
#259 = CARTESIAN_POINT ( 'NONE',  ( 0.0000000000000000000, -6.274098110942214900E-015, -0.9985808762259604800 ) ) ;
#260 = AXIS2_PLACEMENT_3D ( 'NONE', #259, #258, #257 ) ;
#261 = CIRCLE ( 'NONE', #260, 12.70000000000000600 ) ;
#262 = FACE_OUTER_BOUND ( 'NONE', #121, .T. ) ;
#263 =( NAMED_UNIT ( * ) PLANE_ANGLE_UNIT ( ) SI_UNIT ( $, .RADIAN. ) );
#264 = CARTESIAN_POINT ( 'NONE',  ( 0.0000000000000000000, -1.889263795885634800E-014, -1.259999999999983400 ) ) ;
#265 = DIRECTION ( 'NONE',  ( 0.0000000000000000000, 0.0000000000000000000, -1.000000000000000000 ) ) ;
#266 = DIRECTION ( 'NONE',  ( 1.000000000000000000, 0.0000000000000000000, 0.0000000000000000000 ) ) ;
#267 = CARTESIAN_POINT ( 'NONE',  ( 0.0000000000000000000, -3.778953860468945300E-014, 307.3600000000000100 ) ) ;
#268 = AXIS2_PLACEMENT_3D ( 'NONE', #267, #266, #265 ) ;
#269 = CIRCLE ( 'NONE', #268, 308.6200000000000000 ) ;
#270 =( NAMED_UNIT ( * ) PLANE_ANGLE_UNIT ( ) SI_UNIT ( $, .RADIAN. ) );
#271 =( LENGTH_UNIT ( ) NAMED_UNIT ( * ) SI_UNIT ( .MILLI., .METRE. ) );
#272 = MECHANICAL_DESIGN_GEOMETRIC_PRESENTATION_REPRESENTATION (  '', ( #274 ), #181 ) ;
#273 = PRESENTATION_LAYER_ASSIGNMENT (  '', '', ( #274 ) ) ;
#274 = STYLED_ITEM ( 'NONE', ( #275 ), #154 ) ;
#275 = PRESENTATION_STYLE_ASSIGNMENT (( #276 ) ) ;
#276 = SURFACE_STYLE_USAGE ( .BOTH. , #277 ) ;
#277 = SURFACE_SIDE_STYLE ('',( #204 ) ) ;
#278 = CARTESIAN_POINT ( 'NONE',  ( -12.70000000000000600, -4.718848041587794900E-015, -0.9985808762259604800 ) ) ;
#279 = DIRECTION ( 'NONE',  ( -0.0000000000000000000, -0.0000000000000000000, 1.000000000000000000 ) ) ;
#280 = CARTESIAN_POINT ( 'NONE',  ( 0.0000000000000000000, -6.274098110942214900E-015, -0.9985808762259604800 ) ) ;
#281 = AXIS2_PLACEMENT_3D ( 'NONE', #280, #279, #287 ) ;
#282 = CIRCLE ( 'NONE', #281, 12.70000000000000600 ) ;
#283 =( NAMED_UNIT ( * ) PLANE_ANGLE_UNIT ( ) SI_UNIT ( $, .RADIAN. ) );
#284 =( LENGTH_UNIT ( ) NAMED_UNIT ( * ) SI_UNIT ( .MILLI., .METRE. ) );
#285 = DIRECTION ( 'NONE',  ( -1.224606353822377300E-016, -1.000000000000000000, 0.0000000000000000000 ) ) ;
#286 = DIRECTION ( 'NONE',  ( -1.000000000000000000, 1.224606353822377300E-016, 0.0000000000000000000 ) ) ;
#287 = DIRECTION ( 'NONE',  ( 1.000000000000000000, 0.0000000000000000000, 0.0000000000000000000 ) ) ;
#288 =( NAMED_UNIT ( * ) PLANE_ANGLE_UNIT ( ) SI_UNIT ( $, .RADIAN. ) );
#289 =( LENGTH_UNIT ( ) NAMED_UNIT ( * ) SI_UNIT ( .MILLI., .METRE. ) );
#290 = STYLED_ITEM ( 'NONE', ( #309 ), #298 ) ;
#291 = COLOUR_RGB ( '',0.7960784313725489700, 0.8235294117647058400, 0.9372549019607843100 ) ;
#292 = SURFACE_STYLE_FILL_AREA ( #301 ) ;
#293 = UNCERTAINTY_MEASURE_WITH_UNIT (LENGTH_MEASURE( 1.000000000000000100E-005 ), #303, 'distance_accuracy_value', 'NONE');
#294 =( NAMED_UNIT ( * ) SI_UNIT ( $, .STERADIAN. ) SOLID_ANGLE_UNIT ( ) );
#295 = SURFACE_STYLE_USAGE ( .BOTH. , #302 ) ;
#296 =( GEOMETRIC_REPRESENTATION_CONTEXT ( 3 ) GLOBAL_UNCERTAINTY_ASSIGNED_CONTEXT ( ( #82 ) ) GLOBAL_UNIT_ASSIGNED_CONTEXT ( ( #284, #283, #1 ) ) REPRESENTATION_CONTEXT ( 'NONE', 'WORKASPACE' ) );
#297 = MECHANICAL_DESIGN_GEOMETRIC_PRESENTATION_REPRESENTATION (  '', ( #290 ), #300 ) ;
#298 = ADVANCED_BREP_SHAPE_REPRESENTATION ( '3370-E0W', ( #81, #304 ), #296 ) ;
#299 = CARTESIAN_POINT ( 'NONE',  ( 0.0000000000000000000, 0.0000000000000000000, 0.0000000000000000000 ) ) ;
#300 =( GEOMETRIC_REPRESENTATION_CONTEXT ( 3 ) GLOBAL_UNCERTAINTY_ASSIGNED_CONTEXT ( ( #293 ) ) GLOBAL_UNIT_ASSIGNED_CONTEXT ( ( #303, #307, #294 ) ) REPRESENTATION_CONTEXT ( 'NONE', 'WORKASPACE' ) );
#301 = FILL_AREA_STYLE ('',( #308 ) ) ;
#302 = SURFACE_SIDE_STYLE ('',( #292 ) ) ;
#303 =( LENGTH_UNIT ( ) NAMED_UNIT ( * ) SI_UNIT ( .MILLI., .METRE. ) );
#304 = AXIS2_PLACEMENT_3D ( 'NONE', #299, #305, #306 ) ;
#305 = DIRECTION ( 'NONE',  ( 0.0000000000000000000, 0.0000000000000000000, 1.000000000000000000 ) ) ;
#306 = DIRECTION ( 'NONE',  ( 1.000000000000000000, 0.0000000000000000000, 0.0000000000000000000 ) ) ;
#307 =( NAMED_UNIT ( * ) PLANE_ANGLE_UNIT ( ) SI_UNIT ( $, .RADIAN. ) );
#308 = FILL_AREA_STYLE_COLOUR ( '', #291 ) ;
#309 = PRESENTATION_STYLE_ASSIGNMENT (( #295 ) ) ;
#310 = PRESENTATION_LAYER_ASSIGNMENT (  '', '', ( #290 ) ) ;
#311 = PRODUCT_DEFINITION_SHAPE ( 'NONE', 'NONE',  #317 ) ;
#312 = PRODUCT ( '3370-E0W', '3370-E0W', '', ( #321 ) ) ;
#313 = APPLICATION_PROTOCOL_DEFINITION ( 'draft international standard', 'automotive_design', 1998, #314 ) ;
#314 = APPLICATION_CONTEXT ( 'automotive_design' ) ;
#315 = PRODUCT_RELATED_PRODUCT_CATEGORY ( 'part', '', ( #312 ) ) ;
#316 = PRODUCT_DEFINITION_FORMATION_WITH_SPECIFIED_SOURCE ( 'ANY', '', #312, .NOT_KNOWN. ) ;
#317 = PRODUCT_DEFINITION ( 'UNKNOWN', '', #316, #318 ) ;
#318 = PRODUCT_DEFINITION_CONTEXT ( 'detailed design', #314, 'design' ) ;
#319 = SHAPE_DEFINITION_REPRESENTATION ( #311, #298 ) ;
#320 = APPLICATION_CONTEXT ( 'automotive_design' ) ;
#321 = PRODUCT_CONTEXT ( 'NONE', #320, 'mechanical' ) ;
#322 = APPLICATION_PROTOCOL_DEFINITION ( 'draft international standard', 'automotive_design', 1998, #320 ) ;
ENDSEC;
END-ISO-10303-21;
