ISO-10303-21;
HEADER;
FILE_DESCRIPTION (( 'STEP AP203' ),
    '1' );
FILE_NAME ('Web Model 43888_43888.step',
    '2019-01-28T19:00:54',
    ( '' ),
    ( '' ),
    'SwSTEP 2.0',
    'SolidWorks 2016',
    '' );
FILE_SCHEMA (( 'CONFIG_CONTROL_DESIGN' ));
ENDSEC;

DATA;
#1 = PERSON_AND_ORGANIZATION_ROLE ( 'design_supplier' ) ;
#2 = LOCAL_TIME ( 14, 0, 54.00000000000000000, #68 ) ;
#3 = CC_DESIGN_PERSON_AND_ORGANIZATION_ASSIGNMENT ( #53, #109, ( #172 ) ) ;
#4 = COORDINATED_UNIVERSAL_TIME_OFFSET ( 5, 0, .BEHIND. ) ;
#5 = CARTESIAN_POINT ( 'NONE',  ( 0.0000000000000000000, 0.0000000000000000000, 1.750000000000000000 ) ) ;
#6 = CARTESIAN_POINT ( 'NONE',  ( 0.0000000000000000000, 0.0000000000000000000, 1.750000000000000000 ) ) ;
#7 = SHAPE_DEFINITION_REPRESENTATION ( #130, #56 ) ;
#8 = DIRECTION ( 'NONE',  ( 0.0000000000000000000, 0.0000000000000000000, 1.000000000000000000 ) ) ;
#9 = AXIS2_PLACEMENT_3D ( 'NONE', #71, #169, #144 ) ;
#10 = CYLINDRICAL_SURFACE ( 'NONE', #62, 2.499999999999999600 ) ;
#11 = PERSON ( 'UNSPECIFIED', 'UNSPECIFIED', 'UNSPECIFIED', ('UNSPECIFIED'), ('UNSPECIFIED'), ('UNSPECIFIED') ) ;
#12 = CC_DESIGN_APPROVAL ( #163, ( #172 ) ) ;
#13 = APPROVAL_PERSON_ORGANIZATION ( #127, #97, #48 ) ;
#14 = LINE ( 'NONE', #134, #58 ) ;
#15 = AXIS2_PLACEMENT_3D ( 'NONE', #82, #116, #18 ) ;
#16 = DATE_AND_TIME ( #51, #2 ) ;
#17 = ORIENTED_EDGE ( 'NONE', *, *, #140, .T. ) ;
#18 = DIRECTION ( 'NONE',  ( 1.000000000000000000, 0.0000000000000000000, 0.0000000000000000000 ) ) ;
#19 = DIRECTION ( 'NONE',  ( 1.000000000000000000, 0.0000000000000000000, -0.0000000000000000000 ) ) ;
#20 = CIRCLE ( 'NONE', #69, 2.499999999999999600 ) ;
#21 = CARTESIAN_POINT ( 'NONE',  ( 0.0000000000000000000, 0.0000000000000000000, 1.750000000000000000 ) ) ;
#22 = PERSON_AND_ORGANIZATION ( #11, #103 ) ;
#23 = LINE ( 'NONE', #135, #81 ) ;
#24 = CARTESIAN_POINT ( 'NONE',  ( 0.0000000000000000000, 0.0000000000000000000, 0.0000000000000000000 ) ) ;
#25 = ADVANCED_FACE ( 'NONE', ( #162 ), #49, .T. ) ;
#26 = MECHANICAL_CONTEXT ( 'NONE', #111, 'mechanical' ) ;
#27 = APPLICATION_PROTOCOL_DEFINITION ( 'international standard', 'config_control_design', 1994, #39 ) ;
#28 = APPLICATION_PROTOCOL_DEFINITION ( 'international standard', 'config_control_design', 1994, #111 ) ;
#29 = CALENDAR_DATE ( 2019, 28, 1 ) ;
#30 = ORIENTED_EDGE ( 'NONE', *, *, #47, .T. ) ;
#31 = DATE_AND_TIME ( #64, #95 ) ;
#32 = CARTESIAN_POINT ( 'NONE',  ( 2.499999999999999600, 3.061616997868382600E-016, 0.0000000000000000000 ) ) ;
#33 = ORIENTED_EDGE ( 'NONE', *, *, #140, .F. ) ;
#34 = DIRECTION ( 'NONE',  ( -1.000000000000000000, 0.0000000000000000000, 0.0000000000000000000 ) ) ;
#35 = DIRECTION ( 'NONE',  ( 1.000000000000000000, 0.0000000000000000000, 0.0000000000000000000 ) ) ;
#36 = DIRECTION ( 'NONE',  ( 0.0000000000000000000, 0.0000000000000000000, 1.000000000000000000 ) ) ;
#37 = CALENDAR_DATE ( 2019, 28, 1 ) ;
#38 = AXIS2_PLACEMENT_3D ( 'NONE', #57, #36, #19 ) ;
#39 = APPLICATION_CONTEXT ( 'configuration controlled 3d designs of mechanical parts and assemblies' ) ;
#40 = DATE_TIME_ROLE ( 'creation_date' ) ;
#41 = PERSON_AND_ORGANIZATION ( #11, #103 ) ;
#42 = AXIS2_PLACEMENT_3D ( 'NONE', #24, #147, #50 ) ;
#43 = LOCAL_TIME ( 14, 0, 54.00000000000000000, #105 ) ;
#44 = APPROVAL_PERSON_ORGANIZATION ( #61, #113, #76 ) ;
#45 = EDGE_CURVE ( 'NONE', #161, #84, #20, .T. ) ;
#46 = COORDINATED_UNIVERSAL_TIME_OFFSET ( 5, 0, .BEHIND. ) ;
#47 = EDGE_CURVE ( 'NONE', #72, #93, #70, .T. ) ;
#48 = APPROVAL_ROLE ( '' ) ;
#49 = CYLINDRICAL_SURFACE ( 'NONE', #9, 2.499999999999999600 ) ;
#50 = DIRECTION ( 'NONE',  ( 1.000000000000000000, 0.0000000000000000000, 0.0000000000000000000 ) ) ;
#51 = CALENDAR_DATE ( 2019, 28, 1 ) ;
#52 = PRODUCT_RELATED_PRODUCT_CATEGORY ( 'detail', '', ( #106 ) ) ;
#53 = PERSON_AND_ORGANIZATION ( #11, #103 ) ;
#54 = EDGE_LOOP ( 'NONE', ( #30, #17 ) ) ;
#55 = AXIS2_PLACEMENT_3D ( 'NONE', #112, #123, #165 ) ;
#56 = ADVANCED_BREP_SHAPE_REPRESENTATION ( 'Web Model 43888_43888', ( #156, #55 ), #151 ) ;
#57 = CARTESIAN_POINT ( 'NONE',  ( 0.0000000000000000000, 0.0000000000000000000, 0.0000000000000000000 ) ) ;
#58 = VECTOR ( 'NONE', #59, 1000.000000000000000 ) ;
#59 = DIRECTION ( 'NONE',  ( -0.0000000000000000000, -0.0000000000000000000, -1.000000000000000000 ) ) ;
#60 = UNCERTAINTY_MEASURE_WITH_UNIT (LENGTH_MEASURE( 1.000000000000000100E-005 ), #175, 'distance_accuracy_value', 'NONE');
#61 = PERSON_AND_ORGANIZATION ( #11, #103 ) ;
#62 = AXIS2_PLACEMENT_3D ( 'NONE', #6, #86, #34 ) ;
#63 = DATE_TIME_ROLE ( 'classification_date' ) ;
#64 = CALENDAR_DATE ( 2019, 28, 1 ) ;
#65 =( NAMED_UNIT ( * ) PLANE_ANGLE_UNIT ( ) SI_UNIT ( $, .RADIAN. ) );
#66 = ADVANCED_FACE ( 'NONE', ( #141 ), #157, .T. ) ;
#67 = ORIENTED_EDGE ( 'NONE', *, *, #83, .F. ) ;
#68 = COORDINATED_UNIVERSAL_TIME_OFFSET ( 5, 0, .BEHIND. ) ;
#69 = AXIS2_PLACEMENT_3D ( 'NONE', #119, #8, #99 ) ;
#70 = CIRCLE ( 'NONE', #15, 2.499999999999999600 ) ;
#71 = CARTESIAN_POINT ( 'NONE',  ( 0.0000000000000000000, 0.0000000000000000000, 1.750000000000000000 ) ) ;
#72 = VERTEX_POINT ( 'NONE', #74 ) ;
#73 = CIRCLE ( 'NONE', #42, 2.499999999999999600 ) ;
#74 = CARTESIAN_POINT ( 'NONE',  ( -2.499999999999999600, 0.0000000000000000000, 1.750000000000000000 ) ) ;
#75 = PERSON_AND_ORGANIZATION_ROLE ( 'creator' ) ;
#76 = APPROVAL_ROLE ( '' ) ;
#77 = PRODUCT_DEFINITION ( 'UNKNOWN', '', #107, #159 ) ;
#78 = PERSON_AND_ORGANIZATION ( #11, #103 ) ;
#79 = CIRCLE ( 'NONE', #158, 2.499999999999999600 ) ;
#80 = LOCAL_TIME ( 14, 0, 54.00000000000000000, #168 ) ;
#81 = VECTOR ( 'NONE', #98, 1000.000000000000000 ) ;
#82 = CARTESIAN_POINT ( 'NONE',  ( 0.0000000000000000000, 0.0000000000000000000, 1.750000000000000000 ) ) ;
#83 = EDGE_CURVE ( 'NONE', #93, #84, #23, .T. ) ;
#84 = VERTEX_POINT ( 'NONE', #32 ) ;
#85 = PLANE ( 'NONE',  #38 ) ;
#86 = DIRECTION ( 'NONE',  ( -0.0000000000000000000, -0.0000000000000000000, -1.000000000000000000 ) ) ;
#87 = ORIENTED_EDGE ( 'NONE', *, *, #47, .F. ) ;
#88 =( NAMED_UNIT ( * ) SI_UNIT ( $, .STERADIAN. ) SOLID_ANGLE_UNIT ( ) );
#89 = SECURITY_CLASSIFICATION_LEVEL ( 'unclassified' ) ;
#90 = AXIS2_PLACEMENT_3D ( 'NONE', #5, #173, #101 ) ;
#91 = CALENDAR_DATE ( 2019, 28, 1 ) ;
#92 = CC_DESIGN_APPROVAL ( #97, ( #77 ) ) ;
#93 = VERTEX_POINT ( 'NONE', #154 ) ;
#94 = CC_DESIGN_DATE_AND_TIME_ASSIGNMENT ( #152, #40, ( #77 ) ) ;
#95 = LOCAL_TIME ( 14, 0, 54.00000000000000000, #46 ) ;
#96 = APPROVAL_DATE_TIME ( #100, #163 ) ;
#97 = APPROVAL ( #126, 'UNSPECIFIED' ) ;
#98 = DIRECTION ( 'NONE',  ( -0.0000000000000000000, -0.0000000000000000000, -1.000000000000000000 ) ) ;
#99 = DIRECTION ( 'NONE',  ( 1.000000000000000000, 0.0000000000000000000, 0.0000000000000000000 ) ) ;
#100 = DATE_AND_TIME ( #29, #43 ) ;
#101 = DIRECTION ( 'NONE',  ( 1.000000000000000000, 0.0000000000000000000, -0.0000000000000000000 ) ) ;
#102 = CC_DESIGN_SECURITY_CLASSIFICATION ( #172, ( #107 ) ) ;
#103 = ORGANIZATION ( 'UNSPECIFIED', 'UNSPECIFIED', '' ) ;
#104 = CC_DESIGN_PERSON_AND_ORGANIZATION_ASSIGNMENT ( #41, #108, ( #77 ) ) ;
#105 = COORDINATED_UNIVERSAL_TIME_OFFSET ( 5, 0, .BEHIND. ) ;
#106 = PRODUCT ( 'Web Model 43888_43888', 'Web Model 43888_43888', '', ( #26 ) ) ;
#107 = PRODUCT_DEFINITION_FORMATION_WITH_SPECIFIED_SOURCE ( 'ANY', '', #106, .NOT_KNOWN. ) ;
#108 = PERSON_AND_ORGANIZATION_ROLE ( 'creator' ) ;
#109 = PERSON_AND_ORGANIZATION_ROLE ( 'classification_officer' ) ;
#110 = PERSON_AND_ORGANIZATION ( #11, #103 ) ;
#111 = APPLICATION_CONTEXT ( 'configuration controlled 3d designs of mechanical parts and assemblies' ) ;
#112 = CARTESIAN_POINT ( 'NONE',  ( 0.0000000000000000000, 0.0000000000000000000, 0.0000000000000000000 ) ) ;
#113 = APPROVAL ( #164, 'UNSPECIFIED' ) ;
#114 = FACE_OUTER_BOUND ( 'NONE', #166, .T. ) ;
#115 = ORIENTED_EDGE ( 'NONE', *, *, #145, .T. ) ;
#116 = DIRECTION ( 'NONE',  ( 0.0000000000000000000, 0.0000000000000000000, 1.000000000000000000 ) ) ;
#117 = CC_DESIGN_APPROVAL ( #113, ( #107 ) ) ;
#118 = DIRECTION ( 'NONE',  ( 0.0000000000000000000, 0.0000000000000000000, 1.000000000000000000 ) ) ;
#119 = CARTESIAN_POINT ( 'NONE',  ( 0.0000000000000000000, 0.0000000000000000000, 0.0000000000000000000 ) ) ;
#120 = LOCAL_TIME ( 14, 0, 54.00000000000000000, #4 ) ;
#121 = CLOSED_SHELL ( 'NONE', ( #25, #138, #66, #129 ) ) ;
#122 = PERSON_AND_ORGANIZATION_ROLE ( 'design_owner' ) ;
#123 = DIRECTION ( 'NONE',  ( 0.0000000000000000000, 0.0000000000000000000, 1.000000000000000000 ) ) ;
#124 = ORIENTED_EDGE ( 'NONE', *, *, #145, .F. ) ;
#125 = APPROVAL_STATUS ( 'not_yet_approved' ) ;
#126 = APPROVAL_STATUS ( 'not_yet_approved' ) ;
#127 = PERSON_AND_ORGANIZATION ( #11, #103 ) ;
#128 = ORIENTED_EDGE ( 'NONE', *, *, #150, .F. ) ;
#129 = ADVANCED_FACE ( 'NONE', ( #114 ), #85, .F. ) ;
#130 = PRODUCT_DEFINITION_SHAPE ( 'NONE', 'NONE',  #77 ) ;
#131 = CC_DESIGN_PERSON_AND_ORGANIZATION_ASSIGNMENT ( #78, #75, ( #107 ) ) ;
#132 = EDGE_LOOP ( 'NONE', ( #67, #87, #115, #148 ) ) ;
#133 = APPROVAL_DATE_TIME ( #31, #97 ) ;
#134 = CARTESIAN_POINT ( 'NONE',  ( -2.499999999999999600, 0.0000000000000000000, 1.750000000000000000 ) ) ;
#135 = CARTESIAN_POINT ( 'NONE',  ( 2.499999999999999600, 3.061616997868382600E-016, 1.750000000000000000 ) ) ;
#136 = APPROVAL_DATE_TIME ( #174, #113 ) ;
#137 = ORIENTED_EDGE ( 'NONE', *, *, #83, .T. ) ;
#138 = ADVANCED_FACE ( 'NONE', ( #170 ), #10, .T. ) ;
#139 = CC_DESIGN_PERSON_AND_ORGANIZATION_ASSIGNMENT ( #110, #1, ( #107 ) ) ;
#140 = EDGE_CURVE ( 'NONE', #93, #72, #79, .T. ) ;
#141 = FACE_OUTER_BOUND ( 'NONE', #54, .T. ) ;
#142 = APPROVAL_PERSON_ORGANIZATION ( #160, #163, #149 ) ;
#143 = CC_DESIGN_DATE_AND_TIME_ASSIGNMENT ( #16, #63, ( #172 ) ) ;
#144 = DIRECTION ( 'NONE',  ( -1.000000000000000000, 0.0000000000000000000, 0.0000000000000000000 ) ) ;
#145 = EDGE_CURVE ( 'NONE', #72, #161, #14, .T. ) ;
#146 = ORIENTED_EDGE ( 'NONE', *, *, #45, .F. ) ;
#147 = DIRECTION ( 'NONE',  ( 0.0000000000000000000, 0.0000000000000000000, 1.000000000000000000 ) ) ;
#148 = ORIENTED_EDGE ( 'NONE', *, *, #45, .T. ) ;
#149 = APPROVAL_ROLE ( '' ) ;
#150 = EDGE_CURVE ( 'NONE', #84, #161, #73, .T. ) ;
#151 =( GEOMETRIC_REPRESENTATION_CONTEXT ( 3 ) GLOBAL_UNCERTAINTY_ASSIGNED_CONTEXT ( ( #60 ) ) GLOBAL_UNIT_ASSIGNED_CONTEXT ( ( #175, #65, #88 ) ) REPRESENTATION_CONTEXT ( 'NONE', 'WORKASPACE' ) );
#152 = DATE_AND_TIME ( #91, #80 ) ;
#153 = ORIENTED_EDGE ( 'NONE', *, *, #150, .T. ) ;
#154 = CARTESIAN_POINT ( 'NONE',  ( 2.499999999999999600, 3.061616997868382600E-016, 1.750000000000000000 ) ) ;
#155 = EDGE_LOOP ( 'NONE', ( #33, #137, #153, #124 ) ) ;
#156 = MANIFOLD_SOLID_BREP ( 'Boss-Extrude1', #121 ) ;
#157 = PLANE ( 'NONE',  #90 ) ;
#158 = AXIS2_PLACEMENT_3D ( 'NONE', #21, #118, #35 ) ;
#159 = DESIGN_CONTEXT ( 'detailed design', #39, 'design' ) ;
#160 = PERSON_AND_ORGANIZATION ( #11, #103 ) ;
#161 = VERTEX_POINT ( 'NONE', #171 ) ;
#162 = FACE_OUTER_BOUND ( 'NONE', #155, .T. ) ;
#163 = APPROVAL ( #125, 'UNSPECIFIED' ) ;
#164 = APPROVAL_STATUS ( 'not_yet_approved' ) ;
#165 = DIRECTION ( 'NONE',  ( 1.000000000000000000, 0.0000000000000000000, 0.0000000000000000000 ) ) ;
#166 = EDGE_LOOP ( 'NONE', ( #146, #128 ) ) ;
#167 = CC_DESIGN_PERSON_AND_ORGANIZATION_ASSIGNMENT ( #22, #122, ( #106 ) ) ;
#168 = COORDINATED_UNIVERSAL_TIME_OFFSET ( 5, 0, .BEHIND. ) ;
#169 = DIRECTION ( 'NONE',  ( -0.0000000000000000000, -0.0000000000000000000, -1.000000000000000000 ) ) ;
#170 = FACE_OUTER_BOUND ( 'NONE', #132, .T. ) ;
#171 = CARTESIAN_POINT ( 'NONE',  ( -2.499999999999999600, 0.0000000000000000000, 0.0000000000000000000 ) ) ;
#172 = SECURITY_CLASSIFICATION ( '', '', #89 ) ;
#173 = DIRECTION ( 'NONE',  ( 0.0000000000000000000, 0.0000000000000000000, 1.000000000000000000 ) ) ;
#174 = DATE_AND_TIME ( #37, #120 ) ;
#175 =( LENGTH_UNIT ( ) NAMED_UNIT ( * ) SI_UNIT ( .MILLI., .METRE. ) );
ENDSEC;
END-ISO-10303-21;
