ISO-10303-21;
HEADER;
FILE_DESCRIPTION (( 'STEP AP203' ),
    '1' );
FILE_NAME ('Web Model 14956_14956.step',
    '2020-07-27T18:26:27',
    ( '' ),
    ( '' ),
    'SwSTEP 2.0',
    'SolidWorks 2018',
    '' );
FILE_SCHEMA (( 'CONFIG_CONTROL_DESIGN' ));
ENDSEC;

DATA;
#1 = ORIENTED_EDGE ( 'NONE', *, *, #75, .T. ) ;
#2 = DIRECTION ( 'NONE',  ( 0.0000000000000000000, 0.0000000000000000000, -1.000000000000000000 ) ) ;
#3 = SHAPE_DEFINITION_REPRESENTATION ( #77, #101 ) ;
#4 = EDGE_CURVE ( 'NONE', #150, #137, #36, .T. ) ;
#5 = PLANE ( 'NONE',  #24 ) ;
#6 = DATE_TIME_ROLE ( 'creation_date' ) ;
#7 = PERSON_AND_ORGANIZATION_ROLE ( 'design_owner' ) ;
#8 = ORIENTED_EDGE ( 'NONE', *, *, #69, .F. ) ;
#9 = MANIFOLD_SOLID_BREP ( 'Boss-Extrude1', #173 ) ;
#10 = VERTEX_POINT ( 'NONE', #48 ) ;
#11 = CALENDAR_DATE ( 2020, 27, 7 ) ;
#12 = DATE_AND_TIME ( #84, #81 ) ;
#13 = ORIENTED_EDGE ( 'NONE', *, *, #47, .F. ) ;
#14 = CARTESIAN_POINT ( 'NONE',  ( 0.0000000000000000000, 0.0000000000000000000, 0.0000000000000000000 ) ) ;
#15 = DATE_AND_TIME ( #11, #117 ) ;
#16 = CARTESIAN_POINT ( 'NONE',  ( 0.5000000000000000000, 6.123233995736766282E-16, -5.000000000000000000 ) ) ;
#17 = CIRCLE ( 'NONE', #60, 5.000000000000000000 ) ;
#18 = APPROVAL_STATUS ( 'not_yet_approved' ) ;
#19 = APPROVAL_DATE_TIME ( #12, #62 ) ;
#20 = SECURITY_CLASSIFICATION_LEVEL ( 'unclassified' ) ;
#21 = CC_DESIGN_PERSON_AND_ORGANIZATION_ASSIGNMENT ( #45, #120, ( #168 ) ) ;
#22 =( LENGTH_UNIT ( ) NAMED_UNIT ( * ) SI_UNIT ( .MILLI., .METRE. ) );
#23 = EDGE_LOOP ( 'NONE', ( #106, #1, #71, #8 ) ) ;
#24 = AXIS2_PLACEMENT_3D ( 'NONE', #105, #74, #141 ) ;
#25 = AXIS2_PLACEMENT_3D ( 'NONE', #73, #102, #88 ) ;
#26 = VECTOR ( 'NONE', #165, 1000.000000000000000 ) ;
#27 = EDGE_LOOP ( 'NONE', ( #68, #39 ) ) ;
#28 = APPROVAL_PERSON_ORGANIZATION ( #113, #62, #130 ) ;
#29 = ADVANCED_FACE ( 'NONE', ( #135 ), #70, .T. ) ;
#30 = CC_DESIGN_DATE_AND_TIME_ASSIGNMENT ( #15, #6, ( #98 ) ) ;
#31 = DIRECTION ( 'NONE',  ( 0.0000000000000000000, 0.0000000000000000000, 1.000000000000000000 ) ) ;
#32 = DIRECTION ( 'NONE',  ( 1.000000000000000000, 0.0000000000000000000, 0.0000000000000000000 ) ) ;
#33 = DIRECTION ( 'NONE',  ( 1.000000000000000000, 0.0000000000000000000, 0.0000000000000000000 ) ) ;
#34 = EDGE_CURVE ( 'NONE', #10, #164, #17, .T. ) ;
#35 = CARTESIAN_POINT ( 'NONE',  ( -0.5000000000000000000, 0.0000000000000000000, 0.0000000000000000000 ) ) ;
#36 = CIRCLE ( 'NONE', #82, 5.000000000000000000 ) ;
#37 = DATE_AND_TIME ( #162, #65 ) ;
#38 = COORDINATED_UNIVERSAL_TIME_OFFSET ( 5, 0, .BEHIND. ) ;
#39 = ORIENTED_EDGE ( 'NONE', *, *, #4, .T. ) ;
#40 = DATE_TIME_ROLE ( 'classification_date' ) ;
#41 = APPROVAL_STATUS ( 'not_yet_approved' ) ;
#42 = CC_DESIGN_APPROVAL ( #62, ( #147 ) ) ;
#43 = FACE_OUTER_BOUND ( 'NONE', #23, .T. ) ;
#44 = COORDINATED_UNIVERSAL_TIME_OFFSET ( 5, 0, .BEHIND. ) ;
#45 = PERSON_AND_ORGANIZATION ( #166, #146 ) ;
#46 = PERSON_AND_ORGANIZATION ( #166, #146 ) ;
#47 = EDGE_CURVE ( 'NONE', #137, #150, #111, .T. ) ;
#48 = CARTESIAN_POINT ( 'NONE',  ( -0.5000000000000000000, 6.123233995736766282E-16, -5.000000000000000000 ) ) ;
#49 = DIRECTION ( 'NONE',  ( 0.0000000000000000000, 0.0000000000000000000, -1.000000000000000000 ) ) ;
#50 = CC_DESIGN_PERSON_AND_ORGANIZATION_ASSIGNMENT ( #46, #110, ( #147 ) ) ;
#51 = DIRECTION ( 'NONE',  ( 1.000000000000000000, 0.0000000000000000000, 0.0000000000000000000 ) ) ;
#52 = ORIENTED_EDGE ( 'NONE', *, *, #123, .T. ) ;
#53 = APPROVAL_ROLE ( '' ) ;
#54 = APPLICATION_PROTOCOL_DEFINITION ( 'international standard', 'config_control_design', 1994, #145 ) ;
#55 = CC_DESIGN_DATE_AND_TIME_ASSIGNMENT ( #104, #40, ( #168 ) ) ;
#56 = APPROVAL ( #107, 'UNSPECIFIED' ) ;
#57 = PERSON_AND_ORGANIZATION ( #166, #146 ) ;
#58 = DATE_AND_TIME ( #121, #93 ) ;
#59 = DIRECTION ( 'NONE',  ( 1.000000000000000000, 0.0000000000000000000, 0.0000000000000000000 ) ) ;
#60 = AXIS2_PLACEMENT_3D ( 'NONE', #154, #33, #118 ) ;
#61 = DIRECTION ( 'NONE',  ( 0.0000000000000000000, 0.0000000000000000000, -1.000000000000000000 ) ) ;
#62 = APPROVAL ( #18, 'UNSPECIFIED' ) ;
#63 = FACE_OUTER_BOUND ( 'NONE', #96, .T. ) ;
#64 = CC_DESIGN_APPROVAL ( #103, ( #168 ) ) ;
#65 = LOCAL_TIME ( 14, 26, 27.00000000000000000, #44 ) ;
#66 = LINE ( 'NONE', #16, #26 ) ;
#67 = APPROVAL_DATE_TIME ( #58, #56 ) ;
#68 = ORIENTED_EDGE ( 'NONE', *, *, #47, .T. ) ;
#69 = EDGE_CURVE ( 'NONE', #137, #164, #112, .T. ) ;
#70 = CYLINDRICAL_SURFACE ( 'NONE', #25, 5.000000000000000000 ) ;
#71 = ORIENTED_EDGE ( 'NONE', *, *, #34, .T. ) ;
#72 = LOCAL_TIME ( 14, 26, 27.00000000000000000, #143 ) ;
#73 = CARTESIAN_POINT ( 'NONE',  ( 0.5000000000000000000, 0.0000000000000000000, 0.0000000000000000000 ) ) ;
#74 = DIRECTION ( 'NONE',  ( 1.000000000000000000, 0.0000000000000000000, 0.0000000000000000000 ) ) ;
#75 = EDGE_CURVE ( 'NONE', #150, #10, #66, .T. ) ;
#76 = DIRECTION ( 'NONE',  ( 1.000000000000000000, 0.0000000000000000000, 0.0000000000000000000 ) ) ;
#77 = PRODUCT_DEFINITION_SHAPE ( 'NONE', 'NONE',  #98 ) ;
#78 = PERSON_AND_ORGANIZATION ( #166, #146 ) ;
#79 = DIRECTION ( 'NONE',  ( -1.000000000000000000, -0.0000000000000000000, -0.0000000000000000000 ) ) ;
#80 = CC_DESIGN_PERSON_AND_ORGANIZATION_ASSIGNMENT ( #126, #7, ( #170 ) ) ;
#81 = LOCAL_TIME ( 14, 26, 27.00000000000000000, #38 ) ;
#82 = AXIS2_PLACEMENT_3D ( 'NONE', #139, #59, #49 ) ;
#83 = AXIS2_PLACEMENT_3D ( 'NONE', #142, #51, #61 ) ;
#84 = CALENDAR_DATE ( 2020, 27, 7 ) ;
#85 = CYLINDRICAL_SURFACE ( 'NONE', #90, 5.000000000000000000 ) ;
#86 = CC_DESIGN_PERSON_AND_ORGANIZATION_ASSIGNMENT ( #78, #109, ( #147 ) ) ;
#87 = EDGE_LOOP ( 'NONE', ( #140, #13, #134, #52 ) ) ;
#88 = DIRECTION ( 'NONE',  ( 0.0000000000000000000, 0.0000000000000000000, 1.000000000000000000 ) ) ;
#89 = COORDINATED_UNIVERSAL_TIME_OFFSET ( 5, 0, .BEHIND. ) ;
#90 = AXIS2_PLACEMENT_3D ( 'NONE', #91, #114, #153 ) ;
#91 = CARTESIAN_POINT ( 'NONE',  ( 0.5000000000000000000, 0.0000000000000000000, 0.0000000000000000000 ) ) ;
#92 = DIRECTION ( 'NONE',  ( 0.0000000000000000000, 0.0000000000000000000, -1.000000000000000000 ) ) ;
#93 = LOCAL_TIME ( 14, 26, 27.00000000000000000, #160 ) ;
#94 = PERSON_AND_ORGANIZATION_ROLE ( 'creator' ) ;
#95 = FACE_OUTER_BOUND ( 'NONE', #27, .T. ) ;
#96 = EDGE_LOOP ( 'NONE', ( #119, #132 ) ) ;
#97 = PERSON_AND_ORGANIZATION ( #166, #146 ) ;
#98 = PRODUCT_DEFINITION ( 'UNKNOWN', '', #147, #108 ) ;
#99 = ADVANCED_FACE ( 'NONE', ( #95 ), #5, .T. ) ;
#100 = APPROVAL_DATE_TIME ( #37, #103 ) ;
#101 = ADVANCED_BREP_SHAPE_REPRESENTATION ( 'Web Model 14956_14956', ( #9, #157 ), #151 ) ;
#102 = DIRECTION ( 'NONE',  ( -1.000000000000000000, -0.0000000000000000000, -0.0000000000000000000 ) ) ;
#103 = APPROVAL ( #41, 'UNSPECIFIED' ) ;
#104 = DATE_AND_TIME ( #167, #72 ) ;
#105 = CARTESIAN_POINT ( 'NONE',  ( 0.5000000000000000000, 0.0000000000000000000, 0.0000000000000000000 ) ) ;
#106 = ORIENTED_EDGE ( 'NONE', *, *, #4, .F. ) ;
#107 = APPROVAL_STATUS ( 'not_yet_approved' ) ;
#108 = DESIGN_CONTEXT ( 'detailed design', #145, 'design' ) ;
#109 = PERSON_AND_ORGANIZATION_ROLE ( 'design_supplier' ) ;
#110 = PERSON_AND_ORGANIZATION_ROLE ( 'creator' ) ;
#111 = CIRCLE ( 'NONE', #83, 5.000000000000000000 ) ;
#112 = LINE ( 'NONE', #152, #172 ) ;
#113 = PERSON_AND_ORGANIZATION ( #166, #146 ) ;
#114 = DIRECTION ( 'NONE',  ( -1.000000000000000000, -0.0000000000000000000, -0.0000000000000000000 ) ) ;
#115 = CARTESIAN_POINT ( 'NONE',  ( -0.5000000000000000000, 0.0000000000000000000, 5.000000000000000000 ) ) ;
#116 = APPROVAL_PERSON_ORGANIZATION ( #159, #103, #144 ) ;
#117 = LOCAL_TIME ( 14, 26, 27.00000000000000000, #89 ) ;
#118 = DIRECTION ( 'NONE',  ( 0.0000000000000000000, 0.0000000000000000000, -1.000000000000000000 ) ) ;
#119 = ORIENTED_EDGE ( 'NONE', *, *, #123, .F. ) ;
#120 = PERSON_AND_ORGANIZATION_ROLE ( 'classification_officer' ) ;
#121 = CALENDAR_DATE ( 2020, 27, 7 ) ;
#122 = PRODUCT_RELATED_PRODUCT_CATEGORY ( 'detail', '', ( #170 ) ) ;
#123 = EDGE_CURVE ( 'NONE', #164, #10, #136, .T. ) ;
#124 = PLANE ( 'NONE',  #127 ) ;
#125 = UNCERTAINTY_MEASURE_WITH_UNIT (LENGTH_MEASURE( 1.000000000000000082E-05 ), #22, 'distance_accuracy_value', 'NONE');
#126 = PERSON_AND_ORGANIZATION ( #166, #146 ) ;
#127 = AXIS2_PLACEMENT_3D ( 'NONE', #128, #76, #92 ) ;
#128 = CARTESIAN_POINT ( 'NONE',  ( -0.5000000000000000000, 0.0000000000000000000, 0.0000000000000000000 ) ) ;
#129 = MECHANICAL_CONTEXT ( 'NONE', #158, 'mechanical' ) ;
#130 = APPROVAL_ROLE ( '' ) ;
#131 =( NAMED_UNIT ( * ) SI_UNIT ( $, .STERADIAN. ) SOLID_ANGLE_UNIT ( ) );
#132 = ORIENTED_EDGE ( 'NONE', *, *, #34, .F. ) ;
#133 = CC_DESIGN_APPROVAL ( #56, ( #98 ) ) ;
#134 = ORIENTED_EDGE ( 'NONE', *, *, #69, .T. ) ;
#135 = FACE_OUTER_BOUND ( 'NONE', #87, .T. ) ;
#136 = CIRCLE ( 'NONE', #175, 5.000000000000000000 ) ;
#137 = VERTEX_POINT ( 'NONE', #155 ) ;
#138 = APPROVAL_PERSON_ORGANIZATION ( #97, #56, #53 ) ;
#139 = CARTESIAN_POINT ( 'NONE',  ( 0.5000000000000000000, 0.0000000000000000000, 0.0000000000000000000 ) ) ;
#140 = ORIENTED_EDGE ( 'NONE', *, *, #75, .F. ) ;
#141 = DIRECTION ( 'NONE',  ( 0.0000000000000000000, 0.0000000000000000000, -1.000000000000000000 ) ) ;
#142 = CARTESIAN_POINT ( 'NONE',  ( 0.5000000000000000000, 0.0000000000000000000, 0.0000000000000000000 ) ) ;
#143 = COORDINATED_UNIVERSAL_TIME_OFFSET ( 5, 0, .BEHIND. ) ;
#144 = APPROVAL_ROLE ( '' ) ;
#145 = APPLICATION_CONTEXT ( 'configuration controlled 3d designs of mechanical parts and assemblies' ) ;
#146 = ORGANIZATION ( 'UNSPECIFIED', 'UNSPECIFIED', '' ) ;
#147 = PRODUCT_DEFINITION_FORMATION_WITH_SPECIFIED_SOURCE ( 'ANY', '', #170, .NOT_KNOWN. ) ;
#148 = ADVANCED_FACE ( 'NONE', ( #63 ), #124, .F. ) ;
#149 = ADVANCED_FACE ( 'NONE', ( #43 ), #85, .T. ) ;
#150 = VERTEX_POINT ( 'NONE', #163 ) ;
#151 =( GEOMETRIC_REPRESENTATION_CONTEXT ( 3 ) GLOBAL_UNCERTAINTY_ASSIGNED_CONTEXT ( ( #125 ) ) GLOBAL_UNIT_ASSIGNED_CONTEXT ( ( #22, #169, #131 ) ) REPRESENTATION_CONTEXT ( 'NONE', 'WORKASPACE' ) );
#152 = CARTESIAN_POINT ( 'NONE',  ( 0.5000000000000000000, 0.0000000000000000000, 5.000000000000000000 ) ) ;
#153 = DIRECTION ( 'NONE',  ( 0.0000000000000000000, 0.0000000000000000000, 1.000000000000000000 ) ) ;
#154 = CARTESIAN_POINT ( 'NONE',  ( -0.5000000000000000000, 0.0000000000000000000, 0.0000000000000000000 ) ) ;
#155 = CARTESIAN_POINT ( 'NONE',  ( 0.5000000000000000000, 0.0000000000000000000, 5.000000000000000000 ) ) ;
#156 = APPLICATION_PROTOCOL_DEFINITION ( 'international standard', 'config_control_design', 1994, #158 ) ;
#157 = AXIS2_PLACEMENT_3D ( 'NONE', #14, #31, #171 ) ;
#158 = APPLICATION_CONTEXT ( 'configuration controlled 3d designs of mechanical parts and assemblies' ) ;
#159 = PERSON_AND_ORGANIZATION ( #166, #146 ) ;
#160 = COORDINATED_UNIVERSAL_TIME_OFFSET ( 5, 0, .BEHIND. ) ;
#161 = CC_DESIGN_PERSON_AND_ORGANIZATION_ASSIGNMENT ( #57, #94, ( #98 ) ) ;
#162 = CALENDAR_DATE ( 2020, 27, 7 ) ;
#163 = CARTESIAN_POINT ( 'NONE',  ( 0.5000000000000000000, 6.123233995736766282E-16, -5.000000000000000000 ) ) ;
#164 = VERTEX_POINT ( 'NONE', #115 ) ;
#165 = DIRECTION ( 'NONE',  ( -1.000000000000000000, -0.0000000000000000000, -0.0000000000000000000 ) ) ;
#166 = PERSON ( 'UNSPECIFIED', 'UNSPECIFIED', 'UNSPECIFIED', ('UNSPECIFIED'), ('UNSPECIFIED'), ('UNSPECIFIED') ) ;
#167 = CALENDAR_DATE ( 2020, 27, 7 ) ;
#168 = SECURITY_CLASSIFICATION ( '', '', #20 ) ;
#169 =( NAMED_UNIT ( * ) PLANE_ANGLE_UNIT ( ) SI_UNIT ( $, .RADIAN. ) );
#170 = PRODUCT ( 'Web Model 14956_14956', 'Web Model 14956_14956', '', ( #129 ) ) ;
#171 = DIRECTION ( 'NONE',  ( 1.000000000000000000, 0.0000000000000000000, 0.0000000000000000000 ) ) ;
#172 = VECTOR ( 'NONE', #79, 1000.000000000000000 ) ;
#173 = CLOSED_SHELL ( 'NONE', ( #149, #29, #99, #148 ) ) ;
#174 = CC_DESIGN_SECURITY_CLASSIFICATION ( #168, ( #147 ) ) ;
#175 = AXIS2_PLACEMENT_3D ( 'NONE', #35, #32, #2 ) ;
ENDSEC;
END-ISO-10303-21;
