ISO-10303-21;
HEADER;
FILE_DESCRIPTION (( 'STEP AP203' ),
    '1' );
FILE_NAME ('Web Model 43818_43359.step',
    '2017-04-10T18:03:48',
    ( '' ),
    ( '' ),
    'SwSTEP 2.0',
    'SolidWorks 2016',
    '' );
FILE_SCHEMA (( 'CONFIG_CONTROL_DESIGN' ));
ENDSEC;

DATA;
#1 = EDGE_LOOP ( 'NONE', ( #30, #3, #120, #152 ) ) ;
#2 = CARTESIAN_POINT ( 'NONE',  ( -25.00000000000000000, 25.00000000000000000, 0.5000000000000000000 ) ) ;
#3 = ORIENTED_EDGE ( 'NONE', *, *, #153, .F. ) ;
#4 = LINE ( 'NONE', #123, #38 ) ;
#5 = AXIS2_PLACEMENT_3D ( 'NONE', #215, #32, #70 ) ;
#6 = APPROVAL_STATUS ( 'not_yet_approved' ) ;
#7 = CARTESIAN_POINT ( 'NONE',  ( 25.00000000000000000, 25.00000000000000000, -0.5000000000000000000 ) ) ;
#8 = CARTESIAN_POINT ( 'NONE',  ( 0.0000000000000000000, 0.0000000000000000000, -0.5000000000000000000 ) ) ;
#9 = ADVANCED_FACE ( 'NONE', ( #54 ), #99, .F. ) ;
#10 = APPROVAL_PERSON_ORGANIZATION ( #231, #134, #232 ) ;
#11 = DIRECTION ( 'NONE',  ( 1.000000000000000000, 0.0000000000000000000, -0.0000000000000000000 ) ) ;
#12 = CC_DESIGN_PERSON_AND_ORGANIZATION_ASSIGNMENT ( #90, #204, ( #86 ) ) ;
#13 = LINE ( 'NONE', #206, #180 ) ;
#14 = DIRECTION ( 'NONE',  ( 1.000000000000000000, 0.0000000000000000000, 0.0000000000000000000 ) ) ;
#15 = DATE_AND_TIME ( #178, #71 ) ;
#16 = EDGE_LOOP ( 'NONE', ( #40, #207, #186, #115 ) ) ;
#17 = CARTESIAN_POINT ( 'NONE',  ( 25.00000000000000000, 25.00000000000000000, 0.5000000000000000000 ) ) ;
#18 = ORIENTED_EDGE ( 'NONE', *, *, #171, .F. ) ;
#19 = ORIENTED_EDGE ( 'NONE', *, *, #199, .T. ) ;
#20 = CARTESIAN_POINT ( 'NONE',  ( -25.00000000000000000, -25.00000000000000000, -0.5000000000000000000 ) ) ;
#21 = PERSON_AND_ORGANIZATION_ROLE ( 'design_owner' ) ;
#22 = PRODUCT_DEFINITION ( 'UNKNOWN', '', #86, #225 ) ;
#23 = DIRECTION ( 'NONE',  ( -1.000000000000000000, -0.0000000000000000000, -0.0000000000000000000 ) ) ;
#24 = LINE ( 'NONE', #50, #60 ) ;
#25 = CC_DESIGN_PERSON_AND_ORGANIZATION_ASSIGNMENT ( #104, #21, ( #55 ) ) ;
#26 = PLANE ( 'NONE',  #157 ) ;
#27 = CARTESIAN_POINT ( 'NONE',  ( -25.00000000000000000, 25.00000000000000000, -0.5000000000000000000 ) ) ;
#28 = DATE_TIME_ROLE ( 'classification_date' ) ;
#29 = DIRECTION ( 'NONE',  ( 0.0000000000000000000, -1.000000000000000000, 0.0000000000000000000 ) ) ;
#30 = ORIENTED_EDGE ( 'NONE', *, *, #165, .T. ) ;
#31 = FACE_OUTER_BOUND ( 'NONE', #57, .T. ) ;
#32 = DIRECTION ( 'NONE',  ( 0.0000000000000000000, 1.000000000000000000, 0.0000000000000000000 ) ) ;
#33 = DIRECTION ( 'NONE',  ( -0.0000000000000000000, 1.000000000000000000, -0.0000000000000000000 ) ) ;
#34 = AXIS2_PLACEMENT_3D ( 'NONE', #2, #11, #89 ) ;
#35 = COORDINATED_UNIVERSAL_TIME_OFFSET ( 5, 0, .BEHIND. ) ;
#36 = VERTEX_POINT ( 'NONE', #17 ) ;
#37 = FACE_OUTER_BOUND ( 'NONE', #1, .T. ) ;
#38 = VECTOR ( 'NONE', #77, 1000.000000000000000 ) ;
#39 = LINE ( 'NONE', #7, #213 ) ;
#40 = ORIENTED_EDGE ( 'NONE', *, *, #143, .T. ) ;
#41 = ADVANCED_FACE ( 'NONE', ( #121 ), #26, .F. ) ;
#42 = CARTESIAN_POINT ( 'NONE',  ( 25.00000000000000000, -25.00000000000000000, -0.5000000000000000000 ) ) ;
#43 = LOCAL_TIME ( 14, 3, 48.00000000000000000, #127 ) ;
#44 = LINE ( 'NONE', #113, #140 ) ;
#45 = CALENDAR_DATE ( 2017, 10, 4 ) ;
#46 = CARTESIAN_POINT ( 'NONE',  ( -25.00000000000000000, 25.00000000000000000, 0.5000000000000000000 ) ) ;
#47 = COORDINATED_UNIVERSAL_TIME_OFFSET ( 5, 0, .BEHIND. ) ;
#48 = FACE_OUTER_BOUND ( 'NONE', #16, .T. ) ;
#49 = CC_DESIGN_PERSON_AND_ORGANIZATION_ASSIGNMENT ( #58, #105, ( #86 ) ) ;
#50 = CARTESIAN_POINT ( 'NONE',  ( -25.00000000000000000, -25.00000000000000000, 0.5000000000000000000 ) ) ;
#51 = ORIENTED_EDGE ( 'NONE', *, *, #135, .F. ) ;
#52 = CC_DESIGN_PERSON_AND_ORGANIZATION_ASSIGNMENT ( #223, #201, ( #132 ) ) ;
#53 = DIRECTION ( 'NONE',  ( -0.0000000000000000000, -0.0000000000000000000, -1.000000000000000000 ) ) ;
#54 = FACE_OUTER_BOUND ( 'NONE', #146, .T. ) ;
#55 = PRODUCT ( 'Web Model 43818_43359', 'Web Model 43818_43359', '', ( #85 ) ) ;
#56 = LINE ( 'NONE', #63, #84 ) ;
#57 = EDGE_LOOP ( 'NONE', ( #161, #136, #194, #183 ) ) ;
#58 = PERSON_AND_ORGANIZATION ( #79, #109 ) ;
#59 = PERSON_AND_ORGANIZATION ( #79, #109 ) ;
#60 = VECTOR ( 'NONE', #203, 1000.000000000000000 ) ;
#61 = APPROVAL_ROLE ( '' ) ;
#62 = CARTESIAN_POINT ( 'NONE',  ( 25.00000000000000000, 25.00000000000000000, 0.5000000000000000000 ) ) ;
#63 = CARTESIAN_POINT ( 'NONE',  ( -25.00000000000000000, -25.00000000000000000, -0.5000000000000000000 ) ) ;
#64 = LINE ( 'NONE', #138, #227 ) ;
#65 = DIRECTION ( 'NONE',  ( -0.0000000000000000000, -0.0000000000000000000, -1.000000000000000000 ) ) ;
#66 = ORIENTED_EDGE ( 'NONE', *, *, #162, .T. ) ;
#67 = PLANE ( 'NONE',  #5 ) ;
#68 =( NAMED_UNIT ( * ) SI_UNIT ( $, .STERADIAN. ) SOLID_ANGLE_UNIT ( ) );
#69 = CARTESIAN_POINT ( 'NONE',  ( 25.00000000000000000, 25.00000000000000000, 0.5000000000000000000 ) ) ;
#70 = DIRECTION ( 'NONE',  ( 0.0000000000000000000, -0.0000000000000000000, 1.000000000000000000 ) ) ;
#71 = LOCAL_TIME ( 14, 3, 48.00000000000000000, #35 ) ;
#72 = AXIS2_PLACEMENT_3D ( 'NONE', #74, #78, #235 ) ;
#73 = VECTOR ( 'NONE', #80, 1000.000000000000000 ) ;
#74 = CARTESIAN_POINT ( 'NONE',  ( 0.0000000000000000000, 0.0000000000000000000, 0.5000000000000000000 ) ) ;
#75 = EDGE_CURVE ( 'NONE', #148, #114, #195, .T. ) ;
#76 = CC_DESIGN_APPROVAL ( #134, ( #22 ) ) ;
#77 = DIRECTION ( 'NONE',  ( -1.000000000000000000, -0.0000000000000000000, -0.0000000000000000000 ) ) ;
#78 = DIRECTION ( 'NONE',  ( -0.0000000000000000000, 0.0000000000000000000, 1.000000000000000000 ) ) ;
#79 = PERSON ( 'UNSPECIFIED', 'UNSPECIFIED', 'UNSPECIFIED', ('UNSPECIFIED'), ('UNSPECIFIED'), ('UNSPECIFIED') ) ;
#80 = DIRECTION ( 'NONE',  ( -0.0000000000000000000, -0.0000000000000000000, -1.000000000000000000 ) ) ;
#81 = DIRECTION ( 'NONE',  ( 0.0000000000000000000, -0.0000000000000000000, -1.000000000000000000 ) ) ;
#82 = ADVANCED_BREP_SHAPE_REPRESENTATION ( 'Web Model 43818_43359', ( #142, #214 ), #98 ) ;
#83 = DATE_AND_TIME ( #45, #100 ) ;
#84 = VECTOR ( 'NONE', #196, 1000.000000000000000 ) ;
#85 = MECHANICAL_CONTEXT ( 'NONE', #236, 'mechanical' ) ;
#86 = PRODUCT_DEFINITION_FORMATION_WITH_SPECIFIED_SOURCE ( 'ANY', '', #55, .NOT_KNOWN. ) ;
#87 = CARTESIAN_POINT ( 'NONE',  ( -25.00000000000000000, 25.00000000000000000, 0.5000000000000000000 ) ) ;
#88 = AXIS2_PLACEMENT_3D ( 'NONE', #8, #190, #103 ) ;
#89 = DIRECTION ( 'NONE',  ( -0.0000000000000000000, 0.0000000000000000000, -1.000000000000000000 ) ) ;
#90 = PERSON_AND_ORGANIZATION ( #79, #109 ) ;
#91 = LINE ( 'NONE', #118, #73 ) ;
#92 =( LENGTH_UNIT ( ) NAMED_UNIT ( * ) SI_UNIT ( .MILLI., .METRE. ) );
#93 = EDGE_LOOP ( 'NONE', ( #131, #51, #108, #19 ) ) ;
#94 = VERTEX_POINT ( 'NONE', #20 ) ;
#95 = PLANE ( 'NONE',  #34 ) ;
#96 = DIRECTION ( 'NONE',  ( -1.000000000000000000, 0.0000000000000000000, 0.0000000000000000000 ) ) ;
#97 = APPROVAL ( #101, 'UNSPECIFIED' ) ;
#98 =( GEOMETRIC_REPRESENTATION_CONTEXT ( 3 ) GLOBAL_UNCERTAINTY_ASSIGNED_CONTEXT ( ( #224 ) ) GLOBAL_UNIT_ASSIGNED_CONTEXT ( ( #92, #145, #68 ) ) REPRESENTATION_CONTEXT ( 'NONE', 'WORKASPACE' ) );
#99 = PLANE ( 'NONE',  #88 ) ;
#100 = LOCAL_TIME ( 14, 3, 48.00000000000000000, #151 ) ;
#101 = APPROVAL_STATUS ( 'not_yet_approved' ) ;
#102 = PERSON_AND_ORGANIZATION ( #79, #109 ) ;
#103 = DIRECTION ( 'NONE',  ( 1.000000000000000000, 0.0000000000000000000, 0.0000000000000000000 ) ) ;
#104 = PERSON_AND_ORGANIZATION ( #79, #109 ) ;
#105 = PERSON_AND_ORGANIZATION_ROLE ( 'design_supplier' ) ;
#106 = VECTOR ( 'NONE', #200, 1000.000000000000000 ) ;
#107 = ADVANCED_FACE ( 'NONE', ( #48 ), #67, .F. ) ;
#108 = ORIENTED_EDGE ( 'NONE', *, *, #141, .F. ) ;
#109 = ORGANIZATION ( 'UNSPECIFIED', 'UNSPECIFIED', '' ) ;
#110 = VECTOR ( 'NONE', #53, 1000.000000000000000 ) ;
#111 = EDGE_CURVE ( 'NONE', #175, #184, #44, .T. ) ;
#112 = ORIENTED_EDGE ( 'NONE', *, *, #75, .F. ) ;
#113 = CARTESIAN_POINT ( 'NONE',  ( -25.00000000000000000, -25.00000000000000000, 0.5000000000000000000 ) ) ;
#114 = VERTEX_POINT ( 'NONE', #170 ) ;
#115 = ORIENTED_EDGE ( 'NONE', *, *, #153, .T. ) ;
#116 = ORIENTED_EDGE ( 'NONE', *, *, #211, .T. ) ;
#117 = CC_DESIGN_DATE_AND_TIME_ASSIGNMENT ( #198, #130, ( #22 ) ) ;
#118 = CARTESIAN_POINT ( 'NONE',  ( -25.00000000000000000, 25.00000000000000000, 0.5000000000000000000 ) ) ;
#119 = CC_DESIGN_APPROVAL ( #217, ( #86 ) ) ;
#120 = ORIENTED_EDGE ( 'NONE', *, *, #211, .F. ) ;
#121 = FACE_OUTER_BOUND ( 'NONE', #93, .T. ) ;
#122 = PRODUCT_RELATED_PRODUCT_CATEGORY ( 'detail', '', ( #55 ) ) ;
#123 = CARTESIAN_POINT ( 'NONE',  ( -25.00000000000000000, 25.00000000000000000, 0.5000000000000000000 ) ) ;
#124 = FACE_OUTER_BOUND ( 'NONE', #129, .T. ) ;
#125 = VECTOR ( 'NONE', #23, 1000.000000000000000 ) ;
#126 = CC_DESIGN_PERSON_AND_ORGANIZATION_ASSIGNMENT ( #59, #191, ( #22 ) ) ;
#127 = COORDINATED_UNIVERSAL_TIME_OFFSET ( 5, 0, .BEHIND. ) ;
#128 = CC_DESIGN_APPROVAL ( #97, ( #132 ) ) ;
#129 = EDGE_LOOP ( 'NONE', ( #66, #172, #116, #159 ) ) ;
#130 = DATE_TIME_ROLE ( 'creation_date' ) ;
#131 = ORIENTED_EDGE ( 'NONE', *, *, #75, .T. ) ;
#132 = SECURITY_CLASSIFICATION ( '', '', #182 ) ;
#133 = APPROVAL_DATE_TIME ( #144, #97 ) ;
#134 = APPROVAL ( #6, 'UNSPECIFIED' ) ;
#135 = EDGE_CURVE ( 'NONE', #212, #114, #91, .T. ) ;
#136 = ORIENTED_EDGE ( 'NONE', *, *, #199, .F. ) ;
#137 = APPROVAL_ROLE ( '' ) ;
#138 = CARTESIAN_POINT ( 'NONE',  ( -25.00000000000000000, 25.00000000000000000, 0.5000000000000000000 ) ) ;
#139 = PLANE ( 'NONE',  #149 ) ;
#140 = VECTOR ( 'NONE', #14, 1000.000000000000000 ) ;
#141 = EDGE_CURVE ( 'NONE', #36, #212, #4, .T. ) ;
#142 = MANIFOLD_SOLID_BREP ( 'Boss-Extrude1', #166 ) ;
#143 = EDGE_CURVE ( 'NONE', #94, #219, #56, .T. ) ;
#144 = DATE_AND_TIME ( #226, #228 ) ;
#145 =( NAMED_UNIT ( * ) PLANE_ANGLE_UNIT ( ) SI_UNIT ( $, .RADIAN. ) );
#146 = EDGE_LOOP ( 'NONE', ( #18, #187, #202, #112 ) ) ;
#147 = CC_DESIGN_SECURITY_CLASSIFICATION ( #132, ( #86 ) ) ;
#148 = VERTEX_POINT ( 'NONE', #218 ) ;
#149 = AXIS2_PLACEMENT_3D ( 'NONE', #62, #96, #208 ) ;
#150 = CALENDAR_DATE ( 2017, 10, 4 ) ;
#151 = COORDINATED_UNIVERSAL_TIME_OFFSET ( 5, 0, .BEHIND. ) ;
#152 = ORIENTED_EDGE ( 'NONE', *, *, #135, .T. ) ;
#153 = EDGE_CURVE ( 'NONE', #175, #94, #24, .T. ) ;
#154 = LOCAL_TIME ( 14, 3, 48.00000000000000000, #47 ) ;
#155 = APPROVAL_STATUS ( 'not_yet_approved' ) ;
#156 = CARTESIAN_POINT ( 'NONE',  ( 25.00000000000000000, -25.00000000000000000, 0.5000000000000000000 ) ) ;
#157 = AXIS2_PLACEMENT_3D ( 'NONE', #46, #29, #81 ) ;
#158 = LINE ( 'NONE', #69, #193 ) ;
#159 = ORIENTED_EDGE ( 'NONE', *, *, #111, .T. ) ;
#160 = CARTESIAN_POINT ( 'NONE',  ( -25.00000000000000000, 25.00000000000000000, -0.5000000000000000000 ) ) ;
#161 = ORIENTED_EDGE ( 'NONE', *, *, #171, .T. ) ;
#162 = EDGE_CURVE ( 'NONE', #184, #36, #13, .T. ) ;
#163 = DIRECTION ( 'NONE',  ( 0.0000000000000000000, 0.0000000000000000000, 1.000000000000000000 ) ) ;
#164 = EDGE_CURVE ( 'NONE', #184, #219, #167, .T. ) ;
#165 = EDGE_CURVE ( 'NONE', #114, #94, #237, .T. ) ;
#166 = CLOSED_SHELL ( 'NONE', ( #176, #41, #205, #107, #181, #9 ) ) ;
#167 = LINE ( 'NONE', #221, #110 ) ;
#168 = APPLICATION_PROTOCOL_DEFINITION ( 'international standard', 'config_control_design', 1994, #236 ) ;
#169 = DIRECTION ( 'NONE',  ( 1.000000000000000000, 0.0000000000000000000, 0.0000000000000000000 ) ) ;
#170 = CARTESIAN_POINT ( 'NONE',  ( -25.00000000000000000, 25.00000000000000000, -0.5000000000000000000 ) ) ;
#171 = EDGE_CURVE ( 'NONE', #219, #148, #39, .T. ) ;
#172 = ORIENTED_EDGE ( 'NONE', *, *, #141, .T. ) ;
#173 = PERSON_AND_ORGANIZATION ( #79, #109 ) ;
#174 = APPROVAL_PERSON_ORGANIZATION ( #173, #97, #61 ) ;
#175 = VERTEX_POINT ( 'NONE', #222 ) ;
#176 = ADVANCED_FACE ( 'NONE', ( #31 ), #139, .F. ) ;
#177 = PLANE ( 'NONE',  #72 ) ;
#178 = CALENDAR_DATE ( 2017, 10, 4 ) ;
#179 = APPROVAL_PERSON_ORGANIZATION ( #102, #217, #137 ) ;
#180 = VECTOR ( 'NONE', #216, 1000.000000000000000 ) ;
#181 = ADVANCED_FACE ( 'NONE', ( #124 ), #177, .T. ) ;
#182 = SECURITY_CLASSIFICATION_LEVEL ( 'unclassified' ) ;
#183 = ORIENTED_EDGE ( 'NONE', *, *, #164, .T. ) ;
#184 = VERTEX_POINT ( 'NONE', #156 ) ;
#185 = PRODUCT_DEFINITION_SHAPE ( 'NONE', 'NONE',  #22 ) ;
#186 = ORIENTED_EDGE ( 'NONE', *, *, #111, .F. ) ;
#187 = ORIENTED_EDGE ( 'NONE', *, *, #143, .F. ) ;
#188 = APPLICATION_PROTOCOL_DEFINITION ( 'international standard', 'config_control_design', 1994, #192 ) ;
#189 = COORDINATED_UNIVERSAL_TIME_OFFSET ( 5, 0, .BEHIND. ) ;
#190 = DIRECTION ( 'NONE',  ( -0.0000000000000000000, 0.0000000000000000000, 1.000000000000000000 ) ) ;
#191 = PERSON_AND_ORGANIZATION_ROLE ( 'creator' ) ;
#192 = APPLICATION_CONTEXT ( 'configuration controlled 3d designs of mechanical parts and assemblies' ) ;
#193 = VECTOR ( 'NONE', #65, 1000.000000000000000 ) ;
#194 = ORIENTED_EDGE ( 'NONE', *, *, #162, .F. ) ;
#195 = LINE ( 'NONE', #160, #125 ) ;
#196 = DIRECTION ( 'NONE',  ( 1.000000000000000000, 0.0000000000000000000, 0.0000000000000000000 ) ) ;
#197 = APPROVAL_DATE_TIME ( #15, #217 ) ;
#198 = DATE_AND_TIME ( #230, #154 ) ;
#199 = EDGE_CURVE ( 'NONE', #36, #148, #158, .T. ) ;
#200 = DIRECTION ( 'NONE',  ( 0.0000000000000000000, -1.000000000000000000, 0.0000000000000000000 ) ) ;
#201 = PERSON_AND_ORGANIZATION_ROLE ( 'classification_officer' ) ;
#202 = ORIENTED_EDGE ( 'NONE', *, *, #165, .F. ) ;
#203 = DIRECTION ( 'NONE',  ( -0.0000000000000000000, -0.0000000000000000000, -1.000000000000000000 ) ) ;
#204 = PERSON_AND_ORGANIZATION_ROLE ( 'creator' ) ;
#205 = ADVANCED_FACE ( 'NONE', ( #37 ), #95, .F. ) ;
#206 = CARTESIAN_POINT ( 'NONE',  ( 25.00000000000000000, 25.00000000000000000, 0.5000000000000000000 ) ) ;
#207 = ORIENTED_EDGE ( 'NONE', *, *, #164, .F. ) ;
#208 = DIRECTION ( 'NONE',  ( 0.0000000000000000000, 0.0000000000000000000, 1.000000000000000000 ) ) ;
#209 = CARTESIAN_POINT ( 'NONE',  ( 0.0000000000000000000, 0.0000000000000000000, 0.0000000000000000000 ) ) ;
#210 = SHAPE_DEFINITION_REPRESENTATION ( #185, #82 ) ;
#211 = EDGE_CURVE ( 'NONE', #212, #175, #64, .T. ) ;
#212 = VERTEX_POINT ( 'NONE', #87 ) ;
#213 = VECTOR ( 'NONE', #33, 1000.000000000000000 ) ;
#214 = AXIS2_PLACEMENT_3D ( 'NONE', #209, #163, #169 ) ;
#215 = CARTESIAN_POINT ( 'NONE',  ( -25.00000000000000000, -25.00000000000000000, 0.5000000000000000000 ) ) ;
#216 = DIRECTION ( 'NONE',  ( -0.0000000000000000000, 1.000000000000000000, -0.0000000000000000000 ) ) ;
#217 = APPROVAL ( #155, 'UNSPECIFIED' ) ;
#218 = CARTESIAN_POINT ( 'NONE',  ( 25.00000000000000000, 25.00000000000000000, -0.5000000000000000000 ) ) ;
#219 = VERTEX_POINT ( 'NONE', #42 ) ;
#220 = APPROVAL_DATE_TIME ( #83, #134 ) ;
#221 = CARTESIAN_POINT ( 'NONE',  ( 25.00000000000000000, -25.00000000000000000, 0.5000000000000000000 ) ) ;
#222 = CARTESIAN_POINT ( 'NONE',  ( -25.00000000000000000, -25.00000000000000000, 0.5000000000000000000 ) ) ;
#223 = PERSON_AND_ORGANIZATION ( #79, #109 ) ;
#224 = UNCERTAINTY_MEASURE_WITH_UNIT (LENGTH_MEASURE( 1.000000000000000100E-005 ), #92, 'distance_accuracy_value', 'NONE');
#225 = DESIGN_CONTEXT ( 'detailed design', #192, 'design' ) ;
#226 = CALENDAR_DATE ( 2017, 10, 4 ) ;
#227 = VECTOR ( 'NONE', #229, 1000.000000000000000 ) ;
#228 = LOCAL_TIME ( 14, 3, 48.00000000000000000, #189 ) ;
#229 = DIRECTION ( 'NONE',  ( 0.0000000000000000000, -1.000000000000000000, 0.0000000000000000000 ) ) ;
#230 = CALENDAR_DATE ( 2017, 10, 4 ) ;
#231 = PERSON_AND_ORGANIZATION ( #79, #109 ) ;
#232 = APPROVAL_ROLE ( '' ) ;
#233 = CC_DESIGN_DATE_AND_TIME_ASSIGNMENT ( #234, #28, ( #132 ) ) ;
#234 = DATE_AND_TIME ( #150, #43 ) ;
#235 = DIRECTION ( 'NONE',  ( 1.000000000000000000, 0.0000000000000000000, 0.0000000000000000000 ) ) ;
#236 = APPLICATION_CONTEXT ( 'configuration controlled 3d designs of mechanical parts and assemblies' ) ;
#237 = LINE ( 'NONE', #27, #106 ) ;
ENDSEC;
END-ISO-10303-21;
