ISO-10303-21;
HEADER;
FILE_DESCRIPTION (( 'STEP AP203' ),
    '1' );
FILE_NAME ('Web Model 15425_15793.step',
    '2020-11-03T22:08:39',
    ( '' ),
    ( '' ),
    'SwSTEP 2.0',
    'SolidWorks 2018',
    '' );
FILE_SCHEMA (( 'CONFIG_CONTROL_DESIGN' ));
ENDSEC;

DATA;
#1 = CC_DESIGN_SECURITY_CLASSIFICATION ( #160, ( #154 ) ) ;
#2 = COORDINATED_UNIVERSAL_TIME_OFFSET ( 5, 0, .BEHIND. ) ;
#3 = ADVANCED_FACE ( 'NONE', ( #55 ), #76, .T. ) ;
#4 = CYLINDRICAL_SURFACE ( 'NONE', #28, 12.69999999999999929 ) ;
#5 = CARTESIAN_POINT ( 'NONE',  ( -12.69999999999999929, 0.0000000000000000000, -2.000000000000000000 ) ) ;
#6 = CARTESIAN_POINT ( 'NONE',  ( 0.0000000000000000000, 0.0000000000000000000, 2.000000000000000000 ) ) ;
#7 = APPROVAL_ROLE ( '' ) ;
#8 = LOCAL_TIME ( 17, 8, 39.00000000000000000, #94 ) ;
#9 = DIRECTION ( 'NONE',  ( 0.0000000000000000000, 0.0000000000000000000, 1.000000000000000000 ) ) ;
#10 = EDGE_LOOP ( 'NONE', ( #124, #120 ) ) ;
#11 = PRODUCT_DEFINITION ( 'UNKNOWN', '', #154, #15 ) ;
#12 = LINE ( 'NONE', #16, #143 ) ;
#13 = CIRCLE ( 'NONE', #14, 12.69999999999999929 ) ;
#14 = AXIS2_PLACEMENT_3D ( 'NONE', #6, #9, #116 ) ;
#15 = DESIGN_CONTEXT ( 'detailed design', #63, 'design' ) ;
#16 = CARTESIAN_POINT ( 'NONE',  ( 12.69999999999999929, 1.555301434917138433E-15, 2.000000000000000000 ) ) ;
#17 = APPROVAL ( #159, 'UNSPECIFIED' ) ;
#18 = APPROVAL_DATE_TIME ( #53, #31 ) ;
#19 = PERSON_AND_ORGANIZATION_ROLE ( 'design_owner' ) ;
#20 =( LENGTH_UNIT ( ) NAMED_UNIT ( * ) SI_UNIT ( .MILLI., .METRE. ) );
#21 = LINE ( 'NONE', #105, #23 ) ;
#22 = CC_DESIGN_PERSON_AND_ORGANIZATION_ASSIGNMENT ( #127, #19, ( #49 ) ) ;
#23 = VECTOR ( 'NONE', #59, 1000.000000000000000 ) ;
#24 = DATE_AND_TIME ( #134, #37 ) ;
#25 = CC_DESIGN_PERSON_AND_ORGANIZATION_ASSIGNMENT ( #101, #119, ( #154 ) ) ;
#26 = ORIENTED_EDGE ( 'NONE', *, *, #149, .T. ) ;
#27 = DIRECTION ( 'NONE',  ( 1.000000000000000000, 0.0000000000000000000, -0.0000000000000000000 ) ) ;
#28 = AXIS2_PLACEMENT_3D ( 'NONE', #75, #166, #103 ) ;
#29 = CARTESIAN_POINT ( 'NONE',  ( -12.69999999999999929, 0.0000000000000000000, 2.000000000000000000 ) ) ;
#30 = CIRCLE ( 'NONE', #64, 12.69999999999999929 ) ;
#31 = APPROVAL ( #129, 'UNSPECIFIED' ) ;
#32 = DIRECTION ( 'NONE',  ( 1.000000000000000000, 0.0000000000000000000, 0.0000000000000000000 ) ) ;
#33 = DIRECTION ( 'NONE',  ( 0.0000000000000000000, 0.0000000000000000000, 1.000000000000000000 ) ) ;
#34 = DATE_AND_TIME ( #90, #99 ) ;
#35 = DIRECTION ( 'NONE',  ( 0.0000000000000000000, 0.0000000000000000000, 1.000000000000000000 ) ) ;
#36 = CIRCLE ( 'NONE', #74, 12.69999999999999929 ) ;
#37 = LOCAL_TIME ( 17, 8, 39.00000000000000000, #2 ) ;
#38 = CLOSED_SHELL ( 'NONE', ( #57, #42, #3, #112 ) ) ;
#39 = PERSON_AND_ORGANIZATION ( #95, #174 ) ;
#40 = VERTEX_POINT ( 'NONE', #5 ) ;
#41 = PERSON_AND_ORGANIZATION ( #95, #174 ) ;
#42 = ADVANCED_FACE ( 'NONE', ( #87 ), #107, .T. ) ;
#43 = DIRECTION ( 'NONE',  ( -0.0000000000000000000, -0.0000000000000000000, -1.000000000000000000 ) ) ;
#44 = CARTESIAN_POINT ( 'NONE',  ( 0.0000000000000000000, 0.0000000000000000000, -2.000000000000000000 ) ) ;
#45 = DIRECTION ( 'NONE',  ( 0.0000000000000000000, 0.0000000000000000000, 1.000000000000000000 ) ) ;
#46 = DIRECTION ( 'NONE',  ( 1.000000000000000000, 0.0000000000000000000, 0.0000000000000000000 ) ) ;
#47 = PLANE ( 'NONE',  #52 ) ;
#48 = PERSON_AND_ORGANIZATION_ROLE ( 'creator' ) ;
#49 = PRODUCT ( 'Web Model 15425_15793', 'Web Model 15425_15793', '', ( #91 ) ) ;
#50 = VERTEX_POINT ( 'NONE', #29 ) ;
#51 = AXIS2_PLACEMENT_3D ( 'NONE', #158, #35, #32 ) ;
#52 = AXIS2_PLACEMENT_3D ( 'NONE', #157, #45, #106 ) ;
#53 = DATE_AND_TIME ( #67, #8 ) ;
#54 = AXIS2_PLACEMENT_3D ( 'NONE', #130, #153, #61 ) ;
#55 = FACE_OUTER_BOUND ( 'NONE', #131, .T. ) ;
#56 = PERSON_AND_ORGANIZATION ( #95, #174 ) ;
#57 = ADVANCED_FACE ( 'NONE', ( #164 ), #4, .T. ) ;
#58 = ORIENTED_EDGE ( 'NONE', *, *, #72, .T. ) ;
#59 = DIRECTION ( 'NONE',  ( -0.0000000000000000000, -0.0000000000000000000, -1.000000000000000000 ) ) ;
#60 = APPROVAL_DATE_TIME ( #161, #17 ) ;
#61 = DIRECTION ( 'NONE',  ( 1.000000000000000000, 0.0000000000000000000, 0.0000000000000000000 ) ) ;
#62 = CC_DESIGN_DATE_AND_TIME_ASSIGNMENT ( #34, #142, ( #11 ) ) ;
#63 = APPLICATION_CONTEXT ( 'configuration controlled 3d designs of mechanical parts and assemblies' ) ;
#64 = AXIS2_PLACEMENT_3D ( 'NONE', #82, #173, #81 ) ;
#65 = APPLICATION_PROTOCOL_DEFINITION ( 'international standard', 'config_control_design', 1994, #66 ) ;
#66 = APPLICATION_CONTEXT ( 'configuration controlled 3d designs of mechanical parts and assemblies' ) ;
#67 = CALENDAR_DATE ( 2020, 3, 11 ) ;
#68 = ORIENTED_EDGE ( 'NONE', *, *, #96, .F. ) ;
#69 = CC_DESIGN_APPROVAL ( #148, ( #11 ) ) ;
#70 = PRODUCT_RELATED_PRODUCT_CATEGORY ( 'detail', '', ( #49 ) ) ;
#71 = COORDINATED_UNIVERSAL_TIME_OFFSET ( 5, 0, .BEHIND. ) ;
#72 = EDGE_CURVE ( 'NONE', #150, #100, #12, .T. ) ;
#73 = CARTESIAN_POINT ( 'NONE',  ( 0.0000000000000000000, 0.0000000000000000000, 2.000000000000000000 ) ) ;
#74 = AXIS2_PLACEMENT_3D ( 'NONE', #44, #33, #46 ) ;
#75 = CARTESIAN_POINT ( 'NONE',  ( 0.0000000000000000000, 0.0000000000000000000, 2.000000000000000000 ) ) ;
#76 = PLANE ( 'NONE',  #77 ) ;
#77 = AXIS2_PLACEMENT_3D ( 'NONE', #73, #169, #27 ) ;
#78 = CARTESIAN_POINT ( 'NONE',  ( 12.69999999999999929, 1.555301434917138433E-15, -2.000000000000000000 ) ) ;
#79 = APPROVAL_PERSON_ORGANIZATION ( #111, #148, #80 ) ;
#80 = APPROVAL_ROLE ( '' ) ;
#81 = DIRECTION ( 'NONE',  ( 1.000000000000000000, 0.0000000000000000000, 0.0000000000000000000 ) ) ;
#82 = CARTESIAN_POINT ( 'NONE',  ( 0.0000000000000000000, 0.0000000000000000000, -2.000000000000000000 ) ) ;
#83 = ORIENTED_EDGE ( 'NONE', *, *, #136, .F. ) ;
#84 = COORDINATED_UNIVERSAL_TIME_OFFSET ( 5, 0, .BEHIND. ) ;
#85 =( GEOMETRIC_REPRESENTATION_CONTEXT ( 3 ) GLOBAL_UNCERTAINTY_ASSIGNED_CONTEXT ( ( #126 ) ) GLOBAL_UNIT_ASSIGNED_CONTEXT ( ( #20, #172, #128 ) ) REPRESENTATION_CONTEXT ( 'NONE', 'WORKASPACE' ) );
#86 = AXIS2_PLACEMENT_3D ( 'NONE', #167, #104, #114 ) ;
#87 = FACE_OUTER_BOUND ( 'NONE', #98, .T. ) ;
#88 = DATE_TIME_ROLE ( 'classification_date' ) ;
#89 = PERSON_AND_ORGANIZATION_ROLE ( 'classification_officer' ) ;
#90 = CALENDAR_DATE ( 2020, 3, 11 ) ;
#91 = MECHANICAL_CONTEXT ( 'NONE', #66, 'mechanical' ) ;
#92 = APPROVAL_PERSON_ORGANIZATION ( #146, #31, #7 ) ;
#93 = CARTESIAN_POINT ( 'NONE',  ( 12.69999999999999929, 1.555301434917138433E-15, 2.000000000000000000 ) ) ;
#94 = COORDINATED_UNIVERSAL_TIME_OFFSET ( 5, 0, .BEHIND. ) ;
#95 = PERSON ( 'UNSPECIFIED', 'UNSPECIFIED', 'UNSPECIFIED', ('UNSPECIFIED'), ('UNSPECIFIED'), ('UNSPECIFIED') ) ;
#96 = EDGE_CURVE ( 'NONE', #50, #150, #121, .T. ) ;
#97 = MANIFOLD_SOLID_BREP ( 'Boss-Extrude1', #38 ) ;
#98 = EDGE_LOOP ( 'NONE', ( #155, #68, #135, #26 ) ) ;
#99 = LOCAL_TIME ( 17, 8, 39.00000000000000000, #71 ) ;
#100 = VERTEX_POINT ( 'NONE', #78 ) ;
#101 = PERSON_AND_ORGANIZATION ( #95, #174 ) ;
#102 = CALENDAR_DATE ( 2020, 3, 11 ) ;
#103 = DIRECTION ( 'NONE',  ( -1.000000000000000000, 0.0000000000000000000, 0.0000000000000000000 ) ) ;
#104 = DIRECTION ( 'NONE',  ( -0.0000000000000000000, -0.0000000000000000000, -1.000000000000000000 ) ) ;
#105 = CARTESIAN_POINT ( 'NONE',  ( -12.69999999999999929, 0.0000000000000000000, 2.000000000000000000 ) ) ;
#106 = DIRECTION ( 'NONE',  ( 1.000000000000000000, 0.0000000000000000000, -0.0000000000000000000 ) ) ;
#107 = CYLINDRICAL_SURFACE ( 'NONE', #86, 12.69999999999999929 ) ;
#108 = CALENDAR_DATE ( 2020, 3, 11 ) ;
#109 = ORIENTED_EDGE ( 'NONE', *, *, #141, .F. ) ;
#110 = LOCAL_TIME ( 17, 8, 39.00000000000000000, #138 ) ;
#111 = PERSON_AND_ORGANIZATION ( #95, #174 ) ;
#112 = ADVANCED_FACE ( 'NONE', ( #163 ), #47, .F. ) ;
#113 = ADVANCED_BREP_SHAPE_REPRESENTATION ( 'Web Model 15425_15793', ( #97, #51 ), #85 ) ;
#114 = DIRECTION ( 'NONE',  ( -1.000000000000000000, 0.0000000000000000000, 0.0000000000000000000 ) ) ;
#115 = APPROVAL_DATE_TIME ( #24, #148 ) ;
#116 = DIRECTION ( 'NONE',  ( 1.000000000000000000, 0.0000000000000000000, 0.0000000000000000000 ) ) ;
#117 = ORIENTED_EDGE ( 'NONE', *, *, #170, .T. ) ;
#118 = APPROVAL_STATUS ( 'not_yet_approved' ) ;
#119 = PERSON_AND_ORGANIZATION_ROLE ( 'creator' ) ;
#120 = ORIENTED_EDGE ( 'NONE', *, *, #170, .F. ) ;
#121 = CIRCLE ( 'NONE', #54, 12.69999999999999929 ) ;
#122 = EDGE_LOOP ( 'NONE', ( #109, #58, #117, #83 ) ) ;
#123 = SHAPE_DEFINITION_REPRESENTATION ( #151, #113 ) ;
#124 = ORIENTED_EDGE ( 'NONE', *, *, #149, .F. ) ;
#125 = CC_DESIGN_DATE_AND_TIME_ASSIGNMENT ( #137, #88, ( #160 ) ) ;
#126 = UNCERTAINTY_MEASURE_WITH_UNIT (LENGTH_MEASURE( 1.000000000000000082E-05 ), #20, 'distance_accuracy_value', 'NONE');
#127 = PERSON_AND_ORGANIZATION ( #95, #174 ) ;
#128 =( NAMED_UNIT ( * ) SI_UNIT ( $, .STERADIAN. ) SOLID_ANGLE_UNIT ( ) );
#129 = APPROVAL_STATUS ( 'not_yet_approved' ) ;
#130 = CARTESIAN_POINT ( 'NONE',  ( 0.0000000000000000000, 0.0000000000000000000, 2.000000000000000000 ) ) ;
#131 = EDGE_LOOP ( 'NONE', ( #147, #133 ) ) ;
#132 = CC_DESIGN_PERSON_AND_ORGANIZATION_ASSIGNMENT ( #39, #48, ( #11 ) ) ;
#133 = ORIENTED_EDGE ( 'NONE', *, *, #141, .T. ) ;
#134 = CALENDAR_DATE ( 2020, 3, 11 ) ;
#135 = ORIENTED_EDGE ( 'NONE', *, *, #136, .T. ) ;
#136 = EDGE_CURVE ( 'NONE', #50, #40, #21, .T. ) ;
#137 = DATE_AND_TIME ( #108, #110 ) ;
#138 = COORDINATED_UNIVERSAL_TIME_OFFSET ( 5, 0, .BEHIND. ) ;
#139 = PERSON_AND_ORGANIZATION_ROLE ( 'design_supplier' ) ;
#140 = APPLICATION_PROTOCOL_DEFINITION ( 'international standard', 'config_control_design', 1994, #63 ) ;
#141 = EDGE_CURVE ( 'NONE', #150, #50, #13, .T. ) ;
#142 = DATE_TIME_ROLE ( 'creation_date' ) ;
#143 = VECTOR ( 'NONE', #43, 1000.000000000000000 ) ;
#144 = PERSON_AND_ORGANIZATION ( #95, #174 ) ;
#145 = CC_DESIGN_PERSON_AND_ORGANIZATION_ASSIGNMENT ( #144, #89, ( #160 ) ) ;
#146 = PERSON_AND_ORGANIZATION ( #95, #174 ) ;
#147 = ORIENTED_EDGE ( 'NONE', *, *, #96, .T. ) ;
#148 = APPROVAL ( #118, 'UNSPECIFIED' ) ;
#149 = EDGE_CURVE ( 'NONE', #40, #100, #30, .T. ) ;
#150 = VERTEX_POINT ( 'NONE', #93 ) ;
#151 = PRODUCT_DEFINITION_SHAPE ( 'NONE', 'NONE',  #11 ) ;
#152 = APPROVAL_PERSON_ORGANIZATION ( #56, #17, #156 ) ;
#153 = DIRECTION ( 'NONE',  ( 0.0000000000000000000, 0.0000000000000000000, 1.000000000000000000 ) ) ;
#154 = PRODUCT_DEFINITION_FORMATION_WITH_SPECIFIED_SOURCE ( 'ANY', '', #49, .NOT_KNOWN. ) ;
#155 = ORIENTED_EDGE ( 'NONE', *, *, #72, .F. ) ;
#156 = APPROVAL_ROLE ( '' ) ;
#157 = CARTESIAN_POINT ( 'NONE',  ( 0.0000000000000000000, 0.0000000000000000000, -2.000000000000000000 ) ) ;
#158 = CARTESIAN_POINT ( 'NONE',  ( 0.0000000000000000000, 0.0000000000000000000, 0.0000000000000000000 ) ) ;
#159 = APPROVAL_STATUS ( 'not_yet_approved' ) ;
#160 = SECURITY_CLASSIFICATION ( '', '', #171 ) ;
#161 = DATE_AND_TIME ( #102, #175 ) ;
#162 = CC_DESIGN_APPROVAL ( #17, ( #154 ) ) ;
#163 = FACE_OUTER_BOUND ( 'NONE', #10, .T. ) ;
#164 = FACE_OUTER_BOUND ( 'NONE', #122, .T. ) ;
#165 = CC_DESIGN_PERSON_AND_ORGANIZATION_ASSIGNMENT ( #41, #139, ( #154 ) ) ;
#166 = DIRECTION ( 'NONE',  ( -0.0000000000000000000, -0.0000000000000000000, -1.000000000000000000 ) ) ;
#167 = CARTESIAN_POINT ( 'NONE',  ( 0.0000000000000000000, 0.0000000000000000000, 2.000000000000000000 ) ) ;
#168 = CC_DESIGN_APPROVAL ( #31, ( #160 ) ) ;
#169 = DIRECTION ( 'NONE',  ( 0.0000000000000000000, 0.0000000000000000000, 1.000000000000000000 ) ) ;
#170 = EDGE_CURVE ( 'NONE', #100, #40, #36, .T. ) ;
#171 = SECURITY_CLASSIFICATION_LEVEL ( 'unclassified' ) ;
#172 =( NAMED_UNIT ( * ) PLANE_ANGLE_UNIT ( ) SI_UNIT ( $, .RADIAN. ) );
#173 = DIRECTION ( 'NONE',  ( 0.0000000000000000000, 0.0000000000000000000, 1.000000000000000000 ) ) ;
#174 = ORGANIZATION ( 'UNSPECIFIED', 'UNSPECIFIED', '' ) ;
#175 = LOCAL_TIME ( 17, 8, 39.00000000000000000, #84 ) ;
ENDSEC;
END-ISO-10303-21;
