ISO-10303-21;
HEADER;
FILE_DESCRIPTION (( 'STEP AP203' ),
    '1' );
FILE_NAME ('Web Model 47776_47776.step',
    '2017-04-26T16:25:22',
    ( '' ),
    ( '' ),
    'SwSTEP 2.0',
    'SolidWorks 2016',
    '' );
FILE_SCHEMA (( 'CONFIG_CONTROL_DESIGN' ));
ENDSEC;

DATA;
#1 = DIRECTION ( 'NONE',  ( 0.0000000000000000000, 1.000000000000000000, 0.0000000000000000000 ) ) ;
#2 = CC_DESIGN_DATE_AND_TIME_ASSIGNMENT ( #237, #236, ( #305 ) ) ;
#3 = AXIS2_PLACEMENT_3D ( 'NONE', #95, #78, #293 ) ;
#4 = ADVANCED_FACE ( 'NONE', ( #126 ), #175, .T. ) ;
#5 = VECTOR ( 'NONE', #222, 1000.000000000000000 ) ;
#6 = ORIENTED_EDGE ( 'NONE', *, *, #131, .F. ) ;
#7 = VECTOR ( 'NONE', #23, 1000.000000000000000 ) ;
#8 = VERTEX_POINT ( 'NONE', #284 ) ;
#9 = PLANE ( 'NONE',  #137 ) ;
#10 = VECTOR ( 'NONE', #313, 1000.000000000000100 ) ;
#11 = EDGE_CURVE ( 'NONE', #144, #298, #30, .T. ) ;
#12 = CALENDAR_DATE ( 2017, 26, 4 ) ;
#13 = LOCAL_TIME ( 12, 25, 22.00000000000000000, #37 ) ;
#14 = EDGE_LOOP ( 'NONE', ( #232, #256, #113 ) ) ;
#15 = PRODUCT ( 'Web Model 47776_47776', 'Web Model 47776_47776', '', ( #167 ) ) ;
#16 = PERSON_AND_ORGANIZATION_ROLE ( 'design_supplier' ) ;
#17 = LINE ( 'NONE', #199, #7 ) ;
#18 = LOCAL_TIME ( 12, 25, 22.00000000000000000, #158 ) ;
#19 = VECTOR ( 'NONE', #211, 1000.000000000000100 ) ;
#20 = AXIS2_PLACEMENT_3D ( 'NONE', #257, #77, #192 ) ;
#21 = DIRECTION ( 'NONE',  ( -0.7071067811865474600, 0.7071067811865474600, 0.0000000000000000000 ) ) ;
#22 = DIRECTION ( 'NONE',  ( 1.000000000000000000, 0.0000000000000000000, 0.0000000000000000000 ) ) ;
#23 = DIRECTION ( 'NONE',  ( 1.000000000000000000, 0.0000000000000000000, 0.0000000000000000000 ) ) ;
#24 = DIRECTION ( 'NONE',  ( 0.0000000000000000000, 1.000000000000000000, 0.0000000000000000000 ) ) ;
#25 = COORDINATED_UNIVERSAL_TIME_OFFSET ( 5, 0, .BEHIND. ) ;
#26 = VECTOR ( 'NONE', #190, 1000.000000000000000 ) ;
#27 = ADVANCED_FACE ( 'NONE', ( #65 ), #283, .F. ) ;
#28 = DIRECTION ( 'NONE',  ( -0.0000000000000000000, -0.0000000000000000000, -1.000000000000000000 ) ) ;
#29 = EDGE_CURVE ( 'NONE', #213, #195, #75, .T. ) ;
#30 = LINE ( 'NONE', #81, #136 ) ;
#31 = VECTOR ( 'NONE', #238, 1000.000000000000000 ) ;
#32 = CC_DESIGN_APPROVAL ( #42, ( #268 ) ) ;
#33 = COORDINATED_UNIVERSAL_TIME_OFFSET ( 5, 0, .BEHIND. ) ;
#34 = PLANE ( 'NONE',  #188 ) ;
#35 = ORIENTED_EDGE ( 'NONE', *, *, #302, .F. ) ;
#36 = LOCAL_TIME ( 12, 25, 22.00000000000000000, #33 ) ;
#37 = COORDINATED_UNIVERSAL_TIME_OFFSET ( 5, 0, .BEHIND. ) ;
#38 = ADVANCED_FACE ( 'NONE', ( #128 ), #119, .F. ) ;
#39 = DESIGN_CONTEXT ( 'detailed design', #162, 'design' ) ;
#40 = CARTESIAN_POINT ( 'NONE',  ( 2.499999999999998700, 0.0000000000000000000, 2.500000000000000000 ) ) ;
#41 = DIRECTION ( 'NONE',  ( 1.000000000000000000, 0.0000000000000000000, 0.0000000000000000000 ) ) ;
#42 = APPROVAL ( #196, 'UNSPECIFIED' ) ;
#43 = COORDINATED_UNIVERSAL_TIME_OFFSET ( 5, 0, .BEHIND. ) ;
#44 = SECURITY_CLASSIFICATION_LEVEL ( 'unclassified' ) ;
#45 = ORIENTED_EDGE ( 'NONE', *, *, #287, .T. ) ;
#46 = PLANE ( 'NONE',  #108 ) ;
#47 = EDGE_LOOP ( 'NONE', ( #264, #35, #210, #116 ) ) ;
#48 = CC_DESIGN_PERSON_AND_ORGANIZATION_ASSIGNMENT ( #245, #266, ( #305 ) ) ;
#49 = EDGE_CURVE ( 'NONE', #259, #159, #299, .T. ) ;
#50 = DIRECTION ( 'NONE',  ( 1.000000000000000000, 0.0000000000000000000, 0.0000000000000000000 ) ) ;
#51 = CARTESIAN_POINT ( 'NONE',  ( 2.499999999999998700, 0.0000000000000000000, 2.500000000000000000 ) ) ;
#52 = DIRECTION ( 'NONE',  ( -0.0000000000000000000, 0.0000000000000000000, 1.000000000000000000 ) ) ;
#53 = VERTEX_POINT ( 'NONE', #228 ) ;
#54 = ORIENTED_EDGE ( 'NONE', *, *, #49, .T. ) ;
#55 = PERSON_AND_ORGANIZATION ( #87, #230 ) ;
#56 = LINE ( 'NONE', #220, #71 ) ;
#57 = CC_DESIGN_PERSON_AND_ORGANIZATION_ASSIGNMENT ( #55, #120, ( #149 ) ) ;
#58 = DIRECTION ( 'NONE',  ( 1.000000000000000000, 0.0000000000000000000, 0.0000000000000000000 ) ) ;
#59 = CARTESIAN_POINT ( 'NONE',  ( -9.199760500100243800E-016, -9.199760500100243800E-016, -2.500000000000000000 ) ) ;
#60 = ORIENTED_EDGE ( 'NONE', *, *, #64, .F. ) ;
#61 = DIRECTION ( 'NONE',  ( 0.0000000000000000000, 0.0000000000000000000, 1.000000000000000000 ) ) ;
#62 = LINE ( 'NONE', #170, #262 ) ;
#63 = AXIS2_PLACEMENT_3D ( 'NONE', #40, #276, #61 ) ;
#64 = EDGE_CURVE ( 'NONE', #8, #159, #141, .T. ) ;
#65 = FACE_OUTER_BOUND ( 'NONE', #140, .T. ) ;
#66 = APPROVAL_STATUS ( 'not_yet_approved' ) ;
#67 = EDGE_CURVE ( 'NONE', #8, #53, #269, .T. ) ;
#68 = ORIENTED_EDGE ( 'NONE', *, *, #234, .T. ) ;
#69 = CARTESIAN_POINT ( 'NONE',  ( 2.499999999999998700, 0.0000000000000000000, -2.500000000000000000 ) ) ;
#70 = APPROVAL_PERSON_ORGANIZATION ( #272, #102, #94 ) ;
#71 = VECTOR ( 'NONE', #189, 1000.000000000000000 ) ;
#72 = EDGE_CURVE ( 'NONE', #282, #208, #56, .T. ) ;
#73 = ADVANCED_FACE ( 'NONE', ( #289 ), #9, .T. ) ;
#74 = APPLICATION_CONTEXT ( 'configuration controlled 3d designs of mechanical parts and assemblies' ) ;
#75 = LINE ( 'NONE', #164, #117 ) ;
#76 = DIRECTION ( 'NONE',  ( 0.7071067811865474600, -0.7071067811865474600, 0.0000000000000000000 ) ) ;
#77 = DIRECTION ( 'NONE',  ( -0.0000000000000000000, 0.0000000000000000000, 1.000000000000000000 ) ) ;
#78 = DIRECTION ( 'NONE',  ( 0.7071067811865475700, 0.7071067811865475700, -0.0000000000000000000 ) ) ;
#79 = ORIENTED_EDGE ( 'NONE', *, *, #306, .F. ) ;
#80 = ORIENTED_EDGE ( 'NONE', *, *, #270, .F. ) ;
#81 = CARTESIAN_POINT ( 'NONE',  ( 0.0000000000000000000, 2.500000000000000400, 2.500000000000000000 ) ) ;
#82 = ORIENTED_EDGE ( 'NONE', *, *, #287, .F. ) ;
#83 = APPROVAL_PERSON_ORGANIZATION ( #148, #114, #180 ) ;
#84 = FACE_OUTER_BOUND ( 'NONE', #161, .T. ) ;
#85 = ORIENTED_EDGE ( 'NONE', *, *, #172, .T. ) ;
#86 = CARTESIAN_POINT ( 'NONE',  ( -2.500000000000002200, 0.0000000000000000000, -2.500000000000000000 ) ) ;
#87 = PERSON ( 'UNSPECIFIED', 'UNSPECIFIED', 'UNSPECIFIED', ('UNSPECIFIED'), ('UNSPECIFIED'), ('UNSPECIFIED') ) ;
#88 = DIRECTION ( 'NONE',  ( 0.0000000000000000000, 1.000000000000000000, -0.0000000000000000000 ) ) ;
#89 = VERTEX_POINT ( 'NONE', #291 ) ;
#90 = LINE ( 'NONE', #205, #182 ) ;
#91 = CARTESIAN_POINT ( 'NONE',  ( -9.199760500100243800E-016, -9.199760500100243800E-016, 2.500000000000000000 ) ) ;
#92 = ORIENTED_EDGE ( 'NONE', *, *, #234, .F. ) ;
#93 = FACE_OUTER_BOUND ( 'NONE', #14, .T. ) ;
#94 = APPROVAL_ROLE ( '' ) ;
#95 = CARTESIAN_POINT ( 'NONE',  ( -9.199760500100243800E-016, -9.199760500100243800E-016, 2.500000000000000000 ) ) ;
#96 = CARTESIAN_POINT ( 'NONE',  ( -2.500000000000002200, 2.500000000000000400, 2.500000000000000000 ) ) ;
#97 = DIRECTION ( 'NONE',  ( 0.0000000000000000000, 1.000000000000000000, -0.0000000000000000000 ) ) ;
#98 = DIRECTION ( 'NONE',  ( 0.0000000000000000000, 0.0000000000000000000, 1.000000000000000000 ) ) ;
#99 = ADVANCED_FACE ( 'NONE', ( #311 ), #275, .T. ) ;
#100 = VERTEX_POINT ( 'NONE', #177 ) ;
#101 = EDGE_LOOP ( 'NONE', ( #60, #280, #229 ) ) ;
#102 = APPROVAL ( #111, 'UNSPECIFIED' ) ;
#103 = UNCERTAINTY_MEASURE_WITH_UNIT (LENGTH_MEASURE( 1.000000000000000100E-005 ), #317, 'distance_accuracy_value', 'NONE');
#104 = DIRECTION ( 'NONE',  ( -1.000000000000000000, 0.0000000000000000000, 0.0000000000000000000 ) ) ;
#105 = DIRECTION ( 'NONE',  ( 0.0000000000000000000, -0.0000000000000000000, 1.000000000000000000 ) ) ;
#106 = LINE ( 'NONE', #86, #147 ) ;
#107 = DIRECTION ( 'NONE',  ( 0.0000000000000000000, 0.0000000000000000000, 1.000000000000000000 ) ) ;
#108 = AXIS2_PLACEMENT_3D ( 'NONE', #169, #52, #315 ) ;
#109 = APPROVAL_DATE_TIME ( #179, #102 ) ;
#110 = APPLICATION_PROTOCOL_DEFINITION ( 'international standard', 'config_control_design', 1994, #74 ) ;
#111 = APPROVAL_STATUS ( 'not_yet_approved' ) ;
#112 = PRODUCT_DEFINITION_SHAPE ( 'NONE', 'NONE',  #268 ) ;
#113 = ORIENTED_EDGE ( 'NONE', *, *, #11, .F. ) ;
#114 = APPROVAL ( #66, 'UNSPECIFIED' ) ;
#115 = EDGE_CURVE ( 'NONE', #144, #259, #150, .T. ) ;
#116 = ORIENTED_EDGE ( 'NONE', *, *, #270, .T. ) ;
#117 = VECTOR ( 'NONE', #76, 1000.000000000000100 ) ;
#118 = AXIS2_PLACEMENT_3D ( 'NONE', #203, #204, #58 ) ;
#119 = PLANE ( 'NONE',  #118 ) ;
#120 = PERSON_AND_ORGANIZATION_ROLE ( 'creator' ) ;
#121 = ADVANCED_FACE ( 'NONE', ( #84 ), #255, .T. ) ;
#122 = EDGE_LOOP ( 'NONE', ( #278, #310, #156, #45 ) ) ;
#123 = EDGE_CURVE ( 'NONE', #208, #100, #193, .T. ) ;
#124 = CARTESIAN_POINT ( 'NONE',  ( 2.499999999999998700, -2.500000000000000400, -2.500000000000000000 ) ) ;
#125 = CARTESIAN_POINT ( 'NONE',  ( -9.199760500100243800E-016, -9.199760500100243800E-016, 2.500000000000000000 ) ) ;
#126 = FACE_OUTER_BOUND ( 'NONE', #240, .T. ) ;
#127 = DIRECTION ( 'NONE',  ( 0.7071067811865474600, -0.7071067811865474600, 0.0000000000000000000 ) ) ;
#128 = FACE_OUTER_BOUND ( 'NONE', #101, .T. ) ;
#129 = LINE ( 'NONE', #244, #31 ) ;
#130 = ORIENTED_EDGE ( 'NONE', *, *, #302, .T. ) ;
#131 = EDGE_CURVE ( 'NONE', #259, #298, #160, .T. ) ;
#132 = ORIENTED_EDGE ( 'NONE', *, *, #206, .T. ) ;
#133 = DIRECTION ( 'NONE',  ( -0.0000000000000000000, -0.0000000000000000000, -1.000000000000000000 ) ) ;
#134 = CC_DESIGN_APPROVAL ( #114, ( #305 ) ) ;
#135 = DATE_AND_TIME ( #12, #201 ) ;
#136 = VECTOR ( 'NONE', #186, 1000.000000000000000 ) ;
#137 = AXIS2_PLACEMENT_3D ( 'NONE', #281, #1, #105 ) ;
#138 = VECTOR ( 'NONE', #22, 1000.000000000000000 ) ;
#139 = VECTOR ( 'NONE', #28, 1000.000000000000000 ) ;
#140 = EDGE_LOOP ( 'NONE', ( #68, #267, #79 ) ) ;
#141 = LINE ( 'NONE', #59, #198 ) ;
#142 = CARTESIAN_POINT ( 'NONE',  ( -2.500000000000002200, 0.0000000000000000000, 2.500000000000000000 ) ) ;
#143 = ADVANCED_FACE ( 'NONE', ( #93 ), #46, .T. ) ;
#144 = VERTEX_POINT ( 'NONE', #96 ) ;
#145 = CARTESIAN_POINT ( 'NONE',  ( 2.499999999999998700, 2.500000000000000400, 2.500000000000000000 ) ) ;
#146 = CARTESIAN_POINT ( 'NONE',  ( -9.199760500100243800E-016, -9.199760500100243800E-016, 2.500000000000000000 ) ) ;
#147 = VECTOR ( 'NONE', #258, 1000.000000000000000 ) ;
#148 = PERSON_AND_ORGANIZATION ( #87, #230 ) ;
#149 = PRODUCT_DEFINITION_FORMATION_WITH_SPECIFIED_SOURCE ( 'ANY', '', #15, .NOT_KNOWN. ) ;
#150 = LINE ( 'NONE', #91, #19 ) ;
#151 = ADVANCED_BREP_SHAPE_REPRESENTATION ( 'Web Model 47776_47776', ( #243, #312, #295 ), #286 ) ;
#152 = ADVANCED_FACE ( 'NONE', ( #241 ), #34, .F. ) ;
#153 = ORIENTED_EDGE ( 'NONE', *, *, #163, .T. ) ;
#154 = EDGE_LOOP ( 'NONE', ( #153, #82, #6, #54 ) ) ;
#155 = AXIS2_PLACEMENT_3D ( 'NONE', #300, #297, #320 ) ;
#156 = ORIENTED_EDGE ( 'NONE', *, *, #11, .T. ) ;
#157 = DATE_TIME_ROLE ( 'creation_date' ) ;
#158 = COORDINATED_UNIVERSAL_TIME_OFFSET ( 5, 0, .BEHIND. ) ;
#159 = VERTEX_POINT ( 'NONE', #124 ) ;
#160 = LINE ( 'NONE', #51, #226 ) ;
#161 = EDGE_LOOP ( 'NONE', ( #304, #85, #187 ) ) ;
#162 = APPLICATION_CONTEXT ( 'configuration controlled 3d designs of mechanical parts and assemblies' ) ;
#163 = EDGE_CURVE ( 'NONE', #159, #53, #185, .T. ) ;
#164 = CARTESIAN_POINT ( 'NONE',  ( -9.199760500100243800E-016, -9.199760500100243800E-016, -2.500000000000000000 ) ) ;
#165 = ORIENTED_EDGE ( 'NONE', *, *, #64, .T. ) ;
#166 = CARTESIAN_POINT ( 'NONE',  ( 2.499999999999998700, -2.500000000000000400, -2.500000000000000000 ) ) ;
#167 = MECHANICAL_CONTEXT ( 'NONE', #74, 'mechanical' ) ;
#168 = CC_DESIGN_DATE_AND_TIME_ASSIGNMENT ( #135, #157, ( #268 ) ) ;
#169 = CARTESIAN_POINT ( 'NONE',  ( 0.0000000000000000000, 0.0000000000000000000, 2.500000000000000000 ) ) ;
#170 = CARTESIAN_POINT ( 'NONE',  ( -2.500000000000002200, 2.500000000000000400, 2.500000000000000000 ) ) ;
#171 = CARTESIAN_POINT ( 'NONE',  ( -2.500000000000002200, 2.500000000000000400, 2.500000000000000000 ) ) ;
#172 = EDGE_CURVE ( 'NONE', #282, #100, #17, .T. ) ;
#173 = CLOSED_SHELL ( 'NONE', ( #152, #239, #73, #143, #38 ) ) ;
#174 = AXIS2_PLACEMENT_3D ( 'NONE', #263, #24, #227 ) ;
#175 = PLANE ( 'NONE',  #3 ) ;
#176 = ORIENTED_EDGE ( 'NONE', *, *, #197, .T. ) ;
#177 = CARTESIAN_POINT ( 'NONE',  ( 2.499999999999998700, -2.500000000000000400, 2.500000000000000000 ) ) ;
#178 = APPROVAL_DATE_TIME ( #277, #114 ) ;
#179 = DATE_AND_TIME ( #309, #13 ) ;
#180 = APPROVAL_ROLE ( '' ) ;
#181 = ORIENTED_EDGE ( 'NONE', *, *, #29, .F. ) ;
#182 = VECTOR ( 'NONE', #50, 1000.000000000000000 ) ;
#183 = PLANE ( 'NONE',  #174 ) ;
#184 = PRODUCT_RELATED_PRODUCT_CATEGORY ( 'detail', '', ( #15 ) ) ;
#185 = LINE ( 'NONE', #69, #265 ) ;
#186 = DIRECTION ( 'NONE',  ( 1.000000000000000000, 0.0000000000000000000, 0.0000000000000000000 ) ) ;
#187 = ORIENTED_EDGE ( 'NONE', *, *, #123, .F. ) ;
#188 = AXIS2_PLACEMENT_3D ( 'NONE', #125, #207, #21 ) ;
#189 = DIRECTION ( 'NONE',  ( 0.0000000000000000000, 1.000000000000000000, -0.0000000000000000000 ) ) ;
#190 = DIRECTION ( 'NONE',  ( -0.0000000000000000000, -0.0000000000000000000, -1.000000000000000000 ) ) ;
#191 = PERSON_AND_ORGANIZATION ( #87, #230 ) ;
#192 = DIRECTION ( 'NONE',  ( 1.000000000000000000, 0.0000000000000000000, 0.0000000000000000000 ) ) ;
#193 = LINE ( 'NONE', #146, #10 ) ;
#194 = EDGE_LOOP ( 'NONE', ( #165, #221, #215, #176 ) ) ;
#195 = VERTEX_POINT ( 'NONE', #166 ) ;
#196 = APPROVAL_STATUS ( 'not_yet_approved' ) ;
#197 = EDGE_CURVE ( 'NONE', #144, #8, #62, .T. ) ;
#198 = VECTOR ( 'NONE', #127, 1000.000000000000100 ) ;
#199 = CARTESIAN_POINT ( 'NONE',  ( 0.0000000000000000000, -2.500000000000000400, 2.500000000000000000 ) ) ;
#200 = SHAPE_DEFINITION_REPRESENTATION ( #112, #151 ) ;
#201 = LOCAL_TIME ( 12, 25, 22.00000000000000000, #43 ) ;
#202 = CC_DESIGN_PERSON_AND_ORGANIZATION_ASSIGNMENT ( #246, #235, ( #268 ) ) ;
#203 = CARTESIAN_POINT ( 'NONE',  ( 0.0000000000000000000, 0.0000000000000000000, -2.500000000000000000 ) ) ;
#204 = DIRECTION ( 'NONE',  ( -0.0000000000000000000, 0.0000000000000000000, 1.000000000000000000 ) ) ;
#205 = CARTESIAN_POINT ( 'NONE',  ( 0.0000000000000000000, -2.500000000000000400, -2.500000000000000000 ) ) ;
#206 = EDGE_CURVE ( 'NONE', #208, #213, #219, .T. ) ;
#207 = DIRECTION ( 'NONE',  ( 0.7071067811865475700, 0.7071067811865475700, -0.0000000000000000000 ) ) ;
#208 = VERTEX_POINT ( 'NONE', #307 ) ;
#209 = LINE ( 'NONE', #145, #139 ) ;
#210 = ORIENTED_EDGE ( 'NONE', *, *, #172, .F. ) ;
#211 = DIRECTION ( 'NONE',  ( 0.7071067811865474600, -0.7071067811865474600, 0.0000000000000000000 ) ) ;
#212 = ORIENTED_EDGE ( 'NONE', *, *, #206, .F. ) ;
#213 = VERTEX_POINT ( 'NONE', #301 ) ;
#214 = PLANE ( 'NONE',  #63 ) ;
#215 = ORIENTED_EDGE ( 'NONE', *, *, #115, .F. ) ;
#216 = FACE_OUTER_BOUND ( 'NONE', #154, .T. ) ;
#217 = CALENDAR_DATE ( 2017, 26, 4 ) ;
#218 = ADVANCED_FACE ( 'NONE', ( #247 ), #183, .F. ) ;
#219 = LINE ( 'NONE', #171, #260 ) ;
#220 = CARTESIAN_POINT ( 'NONE',  ( -2.500000000000002200, 0.0000000000000000000, 2.500000000000000000 ) ) ;
#221 = ORIENTED_EDGE ( 'NONE', *, *, #49, .F. ) ;
#222 = DIRECTION ( 'NONE',  ( -0.0000000000000000000, -0.0000000000000000000, -1.000000000000000000 ) ) ;
#223 = CC_DESIGN_APPROVAL ( #102, ( #149 ) ) ;
#224 = ORIENTED_EDGE ( 'NONE', *, *, #72, .T. ) ;
#225 = APPLICATION_PROTOCOL_DEFINITION ( 'international standard', 'config_control_design', 1994, #162 ) ;
#226 = VECTOR ( 'NONE', #88, 1000.000000000000000 ) ;
#227 = DIRECTION ( 'NONE',  ( 0.0000000000000000000, -0.0000000000000000000, 1.000000000000000000 ) ) ;
#228 = CARTESIAN_POINT ( 'NONE',  ( 2.499999999999998700, 2.500000000000000400, -2.500000000000000000 ) ) ;
#229 = ORIENTED_EDGE ( 'NONE', *, *, #163, .F. ) ;
#230 = ORGANIZATION ( 'UNSPECIFIED', 'UNSPECIFIED', '' ) ;
#231 = CARTESIAN_POINT ( 'NONE',  ( -0.0000000000000000000, 2.500000000000000400, -2.500000000000000000 ) ) ;
#232 = ORIENTED_EDGE ( 'NONE', *, *, #115, .T. ) ;
#233 = APPROVAL_ROLE ( '' ) ;
#234 = EDGE_CURVE ( 'NONE', #89, #213, #106, .T. ) ;
#235 = PERSON_AND_ORGANIZATION_ROLE ( 'creator' ) ;
#236 = DATE_TIME_ROLE ( 'classification_date' ) ;
#237 = DATE_AND_TIME ( #303, #36 ) ;
#238 = DIRECTION ( 'NONE',  ( -0.0000000000000000000, -0.0000000000000000000, -1.000000000000000000 ) ) ;
#239 = ADVANCED_FACE ( 'NONE', ( #216 ), #214, .F. ) ;
#240 = EDGE_LOOP ( 'NONE', ( #181, #212, #296, #130 ) ) ;
#241 = FACE_OUTER_BOUND ( 'NONE', #194, .T. ) ;
#242 = CC_DESIGN_PERSON_AND_ORGANIZATION_ASSIGNMENT ( #271, #321, ( #15 ) ) ;
#243 = MANIFOLD_SOLID_BREP ( 'Boss-Extrude2', #251 ) ;
#244 = CARTESIAN_POINT ( 'NONE',  ( 2.499999999999998700, -2.500000000000000400, 2.500000000000000000 ) ) ;
#245 = PERSON_AND_ORGANIZATION ( #87, #230 ) ;
#246 = PERSON_AND_ORGANIZATION ( #87, #230 ) ;
#247 = FACE_OUTER_BOUND ( 'NONE', #47, .T. ) ;
#248 = CARTESIAN_POINT ( 'NONE',  ( -2.500000000000002200, -2.500000000000000400, 2.500000000000000000 ) ) ;
#249 = DIRECTION ( 'NONE',  ( -0.0000000000000000000, -0.0000000000000000000, -1.000000000000000000 ) ) ;
#250 = CC_DESIGN_PERSON_AND_ORGANIZATION_ASSIGNMENT ( #316, #16, ( #149 ) ) ;
#251 = CLOSED_SHELL ( 'NONE', ( #99, #218, #4, #121, #27 ) ) ;
#252 = LINE ( 'NONE', #248, #5 ) ;
#253 = CARTESIAN_POINT ( 'NONE',  ( 2.499999999999998700, -2.500000000000000400, 2.500000000000000000 ) ) ;
#254 = APPROVAL_PERSON_ORGANIZATION ( #191, #42, #233 ) ;
#255 = PLANE ( 'NONE',  #20 ) ;
#256 = ORIENTED_EDGE ( 'NONE', *, *, #131, .T. ) ;
#257 = CARTESIAN_POINT ( 'NONE',  ( 0.0000000000000000000, 0.0000000000000000000, 2.500000000000000000 ) ) ;
#258 = DIRECTION ( 'NONE',  ( 0.0000000000000000000, 1.000000000000000000, -0.0000000000000000000 ) ) ;
#259 = VERTEX_POINT ( 'NONE', #273 ) ;
#260 = VECTOR ( 'NONE', #249, 1000.000000000000000 ) ;
#261 = CARTESIAN_POINT ( 'NONE',  ( -2.500000000000002200, -2.500000000000000400, 2.500000000000000000 ) ) ;
#262 = VECTOR ( 'NONE', #133, 1000.000000000000000 ) ;
#263 = CARTESIAN_POINT ( 'NONE',  ( 0.0000000000000000000, -2.500000000000000400, 2.500000000000000000 ) ) ;
#264 = ORIENTED_EDGE ( 'NONE', *, *, #306, .T. ) ;
#265 = VECTOR ( 'NONE', #97, 1000.000000000000000 ) ;
#266 = PERSON_AND_ORGANIZATION_ROLE ( 'classification_officer' ) ;
#267 = ORIENTED_EDGE ( 'NONE', *, *, #29, .T. ) ;
#268 = PRODUCT_DEFINITION ( 'UNKNOWN', '', #149, #39 ) ;
#269 = LINE ( 'NONE', #231, #138 ) ;
#270 = EDGE_CURVE ( 'NONE', #282, #89, #252, .T. ) ;
#271 = PERSON_AND_ORGANIZATION ( #87, #230 ) ;
#272 = PERSON_AND_ORGANIZATION ( #87, #230 ) ;
#273 = CARTESIAN_POINT ( 'NONE',  ( 2.499999999999998700, -2.500000000000000400, 2.500000000000000000 ) ) ;
#274 = CC_DESIGN_SECURITY_CLASSIFICATION ( #305, ( #149 ) ) ;
#275 = PLANE ( 'NONE',  #314 ) ;
#276 = DIRECTION ( 'NONE',  ( -1.000000000000000000, 0.0000000000000000000, 0.0000000000000000000 ) ) ;
#277 = DATE_AND_TIME ( #288, #18 ) ;
#278 = ORIENTED_EDGE ( 'NONE', *, *, #67, .F. ) ;
#279 = CARTESIAN_POINT ( 'NONE',  ( 0.0000000000000000000, 0.0000000000000000000, 0.0000000000000000000 ) ) ;
#280 = ORIENTED_EDGE ( 'NONE', *, *, #67, .T. ) ;
#281 = CARTESIAN_POINT ( 'NONE',  ( 0.0000000000000000000, 2.500000000000000400, 2.500000000000000000 ) ) ;
#282 = VERTEX_POINT ( 'NONE', #261 ) ;
#283 = PLANE ( 'NONE',  #155 ) ;
#284 = CARTESIAN_POINT ( 'NONE',  ( -2.500000000000002200, 2.500000000000000400, -2.500000000000000000 ) ) ;
#285 = LOCAL_TIME ( 12, 25, 22.00000000000000000, #25 ) ;
#286 =( GEOMETRIC_REPRESENTATION_CONTEXT ( 3 ) GLOBAL_UNCERTAINTY_ASSIGNED_CONTEXT ( ( #103 ) ) GLOBAL_UNIT_ASSIGNED_CONTEXT ( ( #317, #292, #319 ) ) REPRESENTATION_CONTEXT ( 'NONE', 'WORKASPACE' ) );
#287 = EDGE_CURVE ( 'NONE', #298, #53, #209, .T. ) ;
#288 = CALENDAR_DATE ( 2017, 26, 4 ) ;
#289 = FACE_OUTER_BOUND ( 'NONE', #122, .T. ) ;
#290 = CARTESIAN_POINT ( 'NONE',  ( 2.499999999999998700, 2.500000000000000400, 2.500000000000000000 ) ) ;
#291 = CARTESIAN_POINT ( 'NONE',  ( -2.500000000000002200, -2.500000000000000400, -2.500000000000000000 ) ) ;
#292 =( NAMED_UNIT ( * ) PLANE_ANGLE_UNIT ( ) SI_UNIT ( $, .RADIAN. ) );
#293 = DIRECTION ( 'NONE',  ( -0.7071067811865474600, 0.7071067811865474600, 0.0000000000000000000 ) ) ;
#294 = APPROVAL_DATE_TIME ( #318, #42 ) ;
#295 = AXIS2_PLACEMENT_3D ( 'NONE', #279, #107, #41 ) ;
#296 = ORIENTED_EDGE ( 'NONE', *, *, #123, .T. ) ;
#297 = DIRECTION ( 'NONE',  ( -0.0000000000000000000, 0.0000000000000000000, 1.000000000000000000 ) ) ;
#298 = VERTEX_POINT ( 'NONE', #290 ) ;
#299 = LINE ( 'NONE', #253, #26 ) ;
#300 = CARTESIAN_POINT ( 'NONE',  ( 0.0000000000000000000, 0.0000000000000000000, -2.500000000000000000 ) ) ;
#301 = CARTESIAN_POINT ( 'NONE',  ( -2.500000000000002200, 2.500000000000000400, -2.500000000000000000 ) ) ;
#302 = EDGE_CURVE ( 'NONE', #100, #195, #129, .T. ) ;
#303 = CALENDAR_DATE ( 2017, 26, 4 ) ;
#304 = ORIENTED_EDGE ( 'NONE', *, *, #72, .F. ) ;
#305 = SECURITY_CLASSIFICATION ( '', '', #44 ) ;
#306 = EDGE_CURVE ( 'NONE', #89, #195, #90, .T. ) ;
#307 = CARTESIAN_POINT ( 'NONE',  ( -2.500000000000002200, 2.500000000000000400, 2.500000000000000000 ) ) ;
#308 = EDGE_LOOP ( 'NONE', ( #92, #80, #224, #132 ) ) ;
#309 = CALENDAR_DATE ( 2017, 26, 4 ) ;
#310 = ORIENTED_EDGE ( 'NONE', *, *, #197, .F. ) ;
#311 = FACE_OUTER_BOUND ( 'NONE', #308, .T. ) ;
#312 = MANIFOLD_SOLID_BREP ( 'Boss-Extrude3', #173 ) ;
#313 = DIRECTION ( 'NONE',  ( 0.7071067811865474600, -0.7071067811865474600, 0.0000000000000000000 ) ) ;
#314 = AXIS2_PLACEMENT_3D ( 'NONE', #142, #104, #98 ) ;
#315 = DIRECTION ( 'NONE',  ( 1.000000000000000000, 0.0000000000000000000, 0.0000000000000000000 ) ) ;
#316 = PERSON_AND_ORGANIZATION ( #87, #230 ) ;
#317 =( LENGTH_UNIT ( ) NAMED_UNIT ( * ) SI_UNIT ( .MILLI., .METRE. ) );
#318 = DATE_AND_TIME ( #217, #285 ) ;
#319 =( NAMED_UNIT ( * ) SI_UNIT ( $, .STERADIAN. ) SOLID_ANGLE_UNIT ( ) );
#320 = DIRECTION ( 'NONE',  ( 1.000000000000000000, 0.0000000000000000000, 0.0000000000000000000 ) ) ;
#321 = PERSON_AND_ORGANIZATION_ROLE ( 'design_owner' ) ;
ENDSEC;
END-ISO-10303-21;
