ISO-10303-21;
HEADER;
FILE_DESCRIPTION (( 'STEP AP203' ),
    '1' );
FILE_NAME ('Web Model 43369_20886.step',
    '2022-03-16T14:55:47',
    ( '' ),
    ( '' ),
    'SwSTEP 2.0',
    'SolidWorks 2021',
    '' );
FILE_SCHEMA (( 'CONFIG_CONTROL_DESIGN' ));
ENDSEC;

DATA;
#1 = PLANE ( 'NONE',  #7 ) ;
#2 = PERSON ( 'UNSPECIFIED', 'UNSPECIFIED', 'UNSPECIFIED', ('UNSPECIFIED'), ('UNSPECIFIED'), ('UNSPECIFIED') ) ;
#3 = CC_DESIGN_SECURITY_CLASSIFICATION ( #142, ( #17 ) ) ;
#4 = AXIS2_PLACEMENT_3D ( 'NONE', #175, #148, #123 ) ;
#5 = PERSON_AND_ORGANIZATION ( #2, #94 ) ;
#6 = APPROVAL_ROLE ( '' ) ;
#7 = AXIS2_PLACEMENT_3D ( 'NONE', #162, #91, #13 ) ;
#8 = PERSON_AND_ORGANIZATION_ROLE ( 'design_owner' ) ;
#9 = AXIS2_PLACEMENT_3D ( 'NONE', #93, #52, #172 ) ;
#10 = CC_DESIGN_APPROVAL ( #135, ( #142 ) ) ;
#11 = UNCERTAINTY_MEASURE_WITH_UNIT (LENGTH_MEASURE( 1.000000000000000082E-05 ), #67, 'distance_accuracy_value', 'NONE');
#12 = APPROVAL_ROLE ( '' ) ;
#13 = DIRECTION ( 'NONE',  ( 1.000000000000000000, 0.000000000000000000, -0.000000000000000000 ) ) ;
#14 = APPROVAL_DATE_TIME ( #60, #135 ) ;
#15 =( NAMED_UNIT ( * ) PLANE_ANGLE_UNIT ( ) SI_UNIT ( $, .RADIAN. ) );
#16 = CARTESIAN_POINT ( 'NONE',  ( -12.50000000000000000, 0.000000000000000000, 0.000000000000000000 ) ) ;
#17 = PRODUCT_DEFINITION_FORMATION_WITH_SPECIFIED_SOURCE ( 'ANY', '', #99, .NOT_KNOWN. ) ;
#18 = APPLICATION_CONTEXT ( 'configuration controlled 3d designs of mechanical parts and assemblies' ) ;
#19 = VERTEX_POINT ( 'NONE', #44 ) ;
#20 = MANIFOLD_SOLID_BREP ( 'Boss-Extrude1', #119 ) ;
#21 = DIRECTION ( 'NONE',  ( 1.000000000000000000, 0.000000000000000000, 0.000000000000000000 ) ) ;
#22 = APPLICATION_PROTOCOL_DEFINITION ( 'international standard', 'config_control_design', 1994, #170 ) ;
#23 = CC_DESIGN_APPROVAL ( #129, ( #17 ) ) ;
#24 = ORIENTED_EDGE ( 'NONE', *, *, #63, .T. ) ;
#25 = ORIENTED_EDGE ( 'NONE', *, *, #36, .F. ) ;
#26 = LOCAL_TIME ( 10, 55, 47.00000000000000000, #107 ) ;
#27 = CARTESIAN_POINT ( 'NONE',  ( 0.000000000000000000, 0.000000000000000000, 0.000000000000000000 ) ) ;
#28 = CARTESIAN_POINT ( 'NONE',  ( -12.50000000000000000, 0.000000000000000000, 1.000000000000000000 ) ) ;
#29 = CARTESIAN_POINT ( 'NONE',  ( -12.50000000000000000, 0.000000000000000000, 1.000000000000000000 ) ) ;
#30 = EDGE_CURVE ( 'NONE', #19, #101, #68, .T. ) ;
#31 = PERSON_AND_ORGANIZATION_ROLE ( 'creator' ) ;
#32 = AXIS2_PLACEMENT_3D ( 'NONE', #45, #153, #103 ) ;
#33 = CARTESIAN_POINT ( 'NONE',  ( 12.50000000000000000, 1.530808498934191521E-15, 0.000000000000000000 ) ) ;
#34 = PERSON_AND_ORGANIZATION ( #2, #94 ) ;
#35 = DATE_TIME_ROLE ( 'creation_date' ) ;
#36 = EDGE_CURVE ( 'NONE', #127, #82, #38, .T. ) ;
#37 = PERSON_AND_ORGANIZATION ( #2, #94 ) ;
#38 = LINE ( 'NONE', #28, #124 ) ;
#39 = CALENDAR_DATE ( 2022, 16, 3 ) ;
#40 = DIRECTION ( 'NONE',  ( 0.000000000000000000, 0.000000000000000000, 1.000000000000000000 ) ) ;
#41 = CARTESIAN_POINT ( 'NONE',  ( 0.000000000000000000, 0.000000000000000000, 0.000000000000000000 ) ) ;
#42 = VECTOR ( 'NONE', #137, 1000.000000000000000 ) ;
#43 = AXIS2_PLACEMENT_3D ( 'NONE', #89, #164, #138 ) ;
#44 = CARTESIAN_POINT ( 'NONE',  ( 12.50000000000000000, 1.530808498934191521E-15, 1.000000000000000000 ) ) ;
#45 = CARTESIAN_POINT ( 'NONE',  ( 0.000000000000000000, 0.000000000000000000, 1.000000000000000000 ) ) ;
#46 = CARTESIAN_POINT ( 'NONE',  ( 0.000000000000000000, 0.000000000000000000, 1.000000000000000000 ) ) ;
#47 =( GEOMETRIC_REPRESENTATION_CONTEXT ( 3 ) GLOBAL_UNCERTAINTY_ASSIGNED_CONTEXT ( ( #11 ) ) GLOBAL_UNIT_ASSIGNED_CONTEXT ( ( #67, #15, #114 ) ) REPRESENTATION_CONTEXT ( 'NONE', 'WORKASPACE' ) );
#48 = PRODUCT_RELATED_PRODUCT_CATEGORY ( 'detail', '', ( #99 ) ) ;
#49 = DATE_AND_TIME ( #51, #53 ) ;
#50 = AXIS2_PLACEMENT_3D ( 'NONE', #46, #40, #70 ) ;
#51 = CALENDAR_DATE ( 2022, 16, 3 ) ;
#52 = DIRECTION ( 'NONE',  ( 0.000000000000000000, 0.000000000000000000, 1.000000000000000000 ) ) ;
#53 = LOCAL_TIME ( 10, 55, 47.00000000000000000, #77 ) ;
#54 = CC_DESIGN_PERSON_AND_ORGANIZATION_ASSIGNMENT ( #37, #144, ( #142 ) ) ;
#55 = COORDINATED_UNIVERSAL_TIME_OFFSET ( 5, 0, .BEHIND. ) ;
#56 = PLANE ( 'NONE',  #43 ) ;
#57 = ORIENTED_EDGE ( 'NONE', *, *, #100, .T. ) ;
#58 = DESIGN_CONTEXT ( 'detailed design', #170, 'design' ) ;
#59 = AXIS2_PLACEMENT_3D ( 'NONE', #41, #174, #140 ) ;
#60 = DATE_AND_TIME ( #39, #72 ) ;
#61 = ORIENTED_EDGE ( 'NONE', *, *, #128, .T. ) ;
#62 = FACE_OUTER_BOUND ( 'NONE', #133, .T. ) ;
#63 = EDGE_CURVE ( 'NONE', #82, #101, #156, .T. ) ;
#64 = APPROVAL_DATE_TIME ( #78, #129 ) ;
#65 = PERSON_AND_ORGANIZATION ( #2, #94 ) ;
#66 = APPROVAL_STATUS ( 'not_yet_approved' ) ;
#67 =( LENGTH_UNIT ( ) NAMED_UNIT ( * ) SI_UNIT ( .MILLI., .METRE. ) );
#68 = LINE ( 'NONE', #161, #42 ) ;
#69 = DATE_AND_TIME ( #163, #84 ) ;
#70 = DIRECTION ( 'NONE',  ( 1.000000000000000000, 0.000000000000000000, 0.000000000000000000 ) ) ;
#71 = FACE_OUTER_BOUND ( 'NONE', #125, .T. ) ;
#72 = LOCAL_TIME ( 10, 55, 47.00000000000000000, #55 ) ;
#73 = EDGE_LOOP ( 'NONE', ( #86, #90, #160, #24 ) ) ;
#74 = CC_DESIGN_PERSON_AND_ORGANIZATION_ASSIGNMENT ( #95, #171, ( #17 ) ) ;
#75 = AXIS2_PLACEMENT_3D ( 'NONE', #27, #87, #169 ) ;
#76 = CC_DESIGN_APPROVAL ( #143, ( #98 ) ) ;
#77 = COORDINATED_UNIVERSAL_TIME_OFFSET ( 5, 0, .BEHIND. ) ;
#78 = DATE_AND_TIME ( #109, #159 ) ;
#79 = PRODUCT_DEFINITION_SHAPE ( 'NONE', 'NONE',  #98 ) ;
#80 = APPROVAL_STATUS ( 'not_yet_approved' ) ;
#81 = CC_DESIGN_PERSON_AND_ORGANIZATION_ASSIGNMENT ( #122, #31, ( #17 ) ) ;
#82 = VERTEX_POINT ( 'NONE', #16 ) ;
#83 = ORIENTED_EDGE ( 'NONE', *, *, #102, .F. ) ;
#84 = LOCAL_TIME ( 10, 55, 47.00000000000000000, #113 ) ;
#85 = ADVANCED_FACE ( 'NONE', ( #71 ), #126, .T. ) ;
#86 = ORIENTED_EDGE ( 'NONE', *, *, #30, .F. ) ;
#87 = DIRECTION ( 'NONE',  ( 0.000000000000000000, 0.000000000000000000, 1.000000000000000000 ) ) ;
#88 = EDGE_LOOP ( 'NONE', ( #139, #83 ) ) ;
#89 = CARTESIAN_POINT ( 'NONE',  ( 0.000000000000000000, 0.000000000000000000, 0.000000000000000000 ) ) ;
#90 = ORIENTED_EDGE ( 'NONE', *, *, #128, .F. ) ;
#91 = DIRECTION ( 'NONE',  ( 0.000000000000000000, 0.000000000000000000, 1.000000000000000000 ) ) ;
#92 = CC_DESIGN_DATE_AND_TIME_ASSIGNMENT ( #147, #35, ( #98 ) ) ;
#93 = CARTESIAN_POINT ( 'NONE',  ( 0.000000000000000000, 0.000000000000000000, 1.000000000000000000 ) ) ;
#94 = ORGANIZATION ( 'UNSPECIFIED', 'UNSPECIFIED', '' ) ;
#95 = PERSON_AND_ORGANIZATION ( #2, #94 ) ;
#96 = CARTESIAN_POINT ( 'NONE',  ( 0.000000000000000000, 0.000000000000000000, 0.000000000000000000 ) ) ;
#97 = ADVANCED_BREP_SHAPE_REPRESENTATION ( 'Web Model 43369_20886', ( #20, #75 ), #47 ) ;
#98 = PRODUCT_DEFINITION ( 'UNKNOWN', '', #17, #58 ) ;
#99 = PRODUCT ( 'Web Model 43369_20886', 'Web Model 43369_20886', '', ( #155 ) ) ;
#100 = EDGE_CURVE ( 'NONE', #19, #127, #106, .T. ) ;
#101 = VERTEX_POINT ( 'NONE', #33 ) ;
#102 = EDGE_CURVE ( 'NONE', #101, #82, #168, .T. ) ;
#103 = DIRECTION ( 'NONE',  ( -1.000000000000000000, 0.000000000000000000, 0.000000000000000000 ) ) ;
#104 = SHAPE_DEFINITION_REPRESENTATION ( #79, #97 ) ;
#105 = CC_DESIGN_PERSON_AND_ORGANIZATION_ASSIGNMENT ( #65, #157, ( #98 ) ) ;
#106 = CIRCLE ( 'NONE', #9, 12.50000000000000000 ) ;
#107 = COORDINATED_UNIVERSAL_TIME_OFFSET ( 5, 0, .BEHIND. ) ;
#108 = CIRCLE ( 'NONE', #50, 12.50000000000000000 ) ;
#109 = CALENDAR_DATE ( 2022, 16, 3 ) ;
#110 = SECURITY_CLASSIFICATION_LEVEL ( 'unclassified' ) ;
#111 = FACE_OUTER_BOUND ( 'NONE', #88, .T. ) ;
#112 = DIRECTION ( 'NONE',  ( -0.000000000000000000, -0.000000000000000000, -1.000000000000000000 ) ) ;
#113 = COORDINATED_UNIVERSAL_TIME_OFFSET ( 5, 0, .BEHIND. ) ;
#114 =( NAMED_UNIT ( * ) SI_UNIT ( $, .STERADIAN. ) SOLID_ANGLE_UNIT ( ) );
#115 = CC_DESIGN_DATE_AND_TIME_ASSIGNMENT ( #69, #134, ( #142 ) ) ;
#116 = APPROVAL_PERSON_ORGANIZATION ( #5, #143, #132 ) ;
#117 = ADVANCED_FACE ( 'NONE', ( #166 ), #167, .T. ) ;
#118 = APPROVAL_STATUS ( 'not_yet_approved' ) ;
#119 = CLOSED_SHELL ( 'NONE', ( #85, #117, #154, #149 ) ) ;
#120 = AXIS2_PLACEMENT_3D ( 'NONE', #96, #145, #21 ) ;
#121 = COORDINATED_UNIVERSAL_TIME_OFFSET ( 5, 0, .BEHIND. ) ;
#122 = PERSON_AND_ORGANIZATION ( #2, #94 ) ;
#123 = DIRECTION ( 'NONE',  ( -1.000000000000000000, 0.000000000000000000, 0.000000000000000000 ) ) ;
#124 = VECTOR ( 'NONE', #112, 1000.000000000000000 ) ;
#125 = EDGE_LOOP ( 'NONE', ( #165, #150, #141, #25 ) ) ;
#126 = CYLINDRICAL_SURFACE ( 'NONE', #4, 12.50000000000000000 ) ;
#127 = VERTEX_POINT ( 'NONE', #29 ) ;
#128 = EDGE_CURVE ( 'NONE', #127, #19, #108, .T. ) ;
#129 = APPROVAL ( #80, 'UNSPECIFIED' ) ;
#130 = CALENDAR_DATE ( 2022, 16, 3 ) ;
#131 = APPROVAL_PERSON_ORGANIZATION ( #151, #135, #12 ) ;
#132 = APPROVAL_ROLE ( '' ) ;
#133 = EDGE_LOOP ( 'NONE', ( #61, #57 ) ) ;
#134 = DATE_TIME_ROLE ( 'classification_date' ) ;
#135 = APPROVAL ( #66, 'UNSPECIFIED' ) ;
#136 = APPROVAL_PERSON_ORGANIZATION ( #34, #129, #6 ) ;
#137 = DIRECTION ( 'NONE',  ( -0.000000000000000000, -0.000000000000000000, -1.000000000000000000 ) ) ;
#138 = DIRECTION ( 'NONE',  ( 1.000000000000000000, 0.000000000000000000, -0.000000000000000000 ) ) ;
#139 = ORIENTED_EDGE ( 'NONE', *, *, #63, .F. ) ;
#140 = DIRECTION ( 'NONE',  ( 1.000000000000000000, 0.000000000000000000, 0.000000000000000000 ) ) ;
#141 = ORIENTED_EDGE ( 'NONE', *, *, #102, .T. ) ;
#142 = SECURITY_CLASSIFICATION ( '', '', #110 ) ;
#143 = APPROVAL ( #118, 'UNSPECIFIED' ) ;
#144 = PERSON_AND_ORGANIZATION_ROLE ( 'classification_officer' ) ;
#145 = DIRECTION ( 'NONE',  ( 0.000000000000000000, 0.000000000000000000, 1.000000000000000000 ) ) ;
#146 = PERSON_AND_ORGANIZATION ( #2, #94 ) ;
#147 = DATE_AND_TIME ( #130, #26 ) ;
#148 = DIRECTION ( 'NONE',  ( -0.000000000000000000, -0.000000000000000000, -1.000000000000000000 ) ) ;
#149 = ADVANCED_FACE ( 'NONE', ( #111 ), #56, .F. ) ;
#150 = ORIENTED_EDGE ( 'NONE', *, *, #30, .T. ) ;
#151 = PERSON_AND_ORGANIZATION ( #2, #94 ) ;
#152 = CC_DESIGN_PERSON_AND_ORGANIZATION_ASSIGNMENT ( #146, #8, ( #99 ) ) ;
#153 = DIRECTION ( 'NONE',  ( -0.000000000000000000, -0.000000000000000000, -1.000000000000000000 ) ) ;
#154 = ADVANCED_FACE ( 'NONE', ( #62 ), #1, .T. ) ;
#155 = MECHANICAL_CONTEXT ( 'NONE', #18, 'mechanical' ) ;
#156 = CIRCLE ( 'NONE', #59, 12.50000000000000000 ) ;
#157 = PERSON_AND_ORGANIZATION_ROLE ( 'creator' ) ;
#158 = APPROVAL_DATE_TIME ( #49, #143 ) ;
#159 = LOCAL_TIME ( 10, 55, 47.00000000000000000, #121 ) ;
#160 = ORIENTED_EDGE ( 'NONE', *, *, #36, .T. ) ;
#161 = CARTESIAN_POINT ( 'NONE',  ( 12.50000000000000000, 1.530808498934191521E-15, 1.000000000000000000 ) ) ;
#162 = CARTESIAN_POINT ( 'NONE',  ( 0.000000000000000000, 0.000000000000000000, 1.000000000000000000 ) ) ;
#163 = CALENDAR_DATE ( 2022, 16, 3 ) ;
#164 = DIRECTION ( 'NONE',  ( 0.000000000000000000, 0.000000000000000000, 1.000000000000000000 ) ) ;
#165 = ORIENTED_EDGE ( 'NONE', *, *, #100, .F. ) ;
#166 = FACE_OUTER_BOUND ( 'NONE', #73, .T. ) ;
#167 = CYLINDRICAL_SURFACE ( 'NONE', #32, 12.50000000000000000 ) ;
#168 = CIRCLE ( 'NONE', #120, 12.50000000000000000 ) ;
#169 = DIRECTION ( 'NONE',  ( 1.000000000000000000, 0.000000000000000000, 0.000000000000000000 ) ) ;
#170 = APPLICATION_CONTEXT ( 'configuration controlled 3d designs of mechanical parts and assemblies' ) ;
#171 = PERSON_AND_ORGANIZATION_ROLE ( 'design_supplier' ) ;
#172 = DIRECTION ( 'NONE',  ( 1.000000000000000000, 0.000000000000000000, 0.000000000000000000 ) ) ;
#173 = APPLICATION_PROTOCOL_DEFINITION ( 'international standard', 'config_control_design', 1994, #18 ) ;
#174 = DIRECTION ( 'NONE',  ( 0.000000000000000000, 0.000000000000000000, 1.000000000000000000 ) ) ;
#175 = CARTESIAN_POINT ( 'NONE',  ( 0.000000000000000000, 0.000000000000000000, 1.000000000000000000 ) ) ;
ENDSEC;
END-ISO-10303-21;
