ISO-10303-21;
HEADER;
FILE_DESCRIPTION (( 'STEP AP214' ),
    '1' );
FILE_NAME ('24988-E0W.STEP',
    '2012-10-01T15:06:20',
    ( 'Admin' ),
    ( 'Thorlabs, Inc.' ),
    'SwSTEP 2.0',
    'SolidWorks 2011',
    '' );
FILE_SCHEMA (( 'AUTOMOTIVE_DESIGN' ));
ENDSEC;

DATA;
#1 =( LENGTH_UNIT ( ) NAMED_UNIT ( * ) SI_UNIT ( .MILLI., .METRE. ) );
#2 =( NAMED_UNIT ( * ) SI_UNIT ( $, .STERADIAN. ) SOLID_ANGLE_UNIT ( ) );
#3 =( NAMED_UNIT ( * ) PLANE_ANGLE_UNIT ( ) SI_UNIT ( $, .RADIAN. ) );
#4 = UNCERTAINTY_MEASURE_WITH_UNIT (LENGTH_MEASURE( 1.000000000000000100E-005 ), #1, 'distance_accuracy_value', 'NONE');
#5 = DIRECTION ( 'NONE',  ( -0.0000000000000000000, -0.0000000000000000000, 1.000000000000000000 ) ) ;
#6 =( GEOMETRIC_REPRESENTATION_CONTEXT ( 3 ) GLOBAL_UNCERTAINTY_ASSIGNED_CONTEXT ( ( #4 ) ) GLOBAL_UNIT_ASSIGNED_CONTEXT ( ( #1, #3, #2 ) ) REPRESENTATION_CONTEXT ( 'NONE', 'WORKASPACE' ) );
#7 =( LENGTH_UNIT ( ) NAMED_UNIT ( * ) SI_UNIT ( .MILLI., .METRE. ) );
#8 = CARTESIAN_POINT ( 'NONE',  ( -12.55857864376269000, 1.537982313792428700E-015, 0.5349066100367685400 ) ) ;
#9 = ADVANCED_BREP_SHAPE_REPRESENTATION ( '24988-E0W', ( #134, #386 ), #359 ) ;
#10 =( GEOMETRIC_REPRESENTATION_CONTEXT ( 3 ) GLOBAL_UNCERTAINTY_ASSIGNED_CONTEXT ( ( #245 ) ) GLOBAL_UNIT_ASSIGNED_CONTEXT ( ( #268, #251, #250 ) ) REPRESENTATION_CONTEXT ( 'NONE', 'WORKASPACE' ) );
#11 =( GEOMETRIC_REPRESENTATION_CONTEXT ( 3 ) GLOBAL_UNCERTAINTY_ASSIGNED_CONTEXT ( ( #304 ) ) GLOBAL_UNIT_ASSIGNED_CONTEXT ( ( #309, #306, #305 ) ) REPRESENTATION_CONTEXT ( 'NONE', 'WORKASPACE' ) );
#12 = FACE_OUTER_BOUND ( 'NONE', #199, .T. ) ;
#13 = CARTESIAN_POINT ( 'NONE',  ( 0.0000000000000000000, 0.0000000000000000000, -1.465093389963222100 ) ) ;
#14 = AXIS2_PLACEMENT_3D ( 'NONE', #13, #5, #28 ) ;
#15 = CIRCLE ( 'NONE', #14, 12.55857864376269000 ) ;
#16 = DIRECTION ( 'NONE',  ( -0.0000000000000000000, -0.0000000000000000000, 1.000000000000000000 ) ) ;
#17 = COLOUR_RGB ( '',0.7960784313725489700, 0.8235294117647058400, 0.9372549019607843100 ) ;
#18 = DIRECTION ( 'NONE',  ( 1.000000000000000000, 0.0000000000000000000, 0.0000000000000000000 ) ) ;
#19 =( GEOMETRIC_REPRESENTATION_CONTEXT ( 3 ) GLOBAL_UNCERTAINTY_ASSIGNED_CONTEXT ( ( #85 ) ) GLOBAL_UNIT_ASSIGNED_CONTEXT ( ( #57, #87, #86 ) ) REPRESENTATION_CONTEXT ( 'NONE', 'WORKASPACE' ) );
#20 = MECHANICAL_DESIGN_GEOMETRIC_PRESENTATION_REPRESENTATION (  '', ( #22 ), #6 ) ;
#21 = PRESENTATION_LAYER_ASSIGNMENT (  '', '', ( #22 ) ) ;
#22 = STYLED_ITEM ( 'NONE', ( #23 ), #125 ) ;
#23 = PRESENTATION_STYLE_ASSIGNMENT (( #24 ) ) ;
#24 = SURFACE_STYLE_USAGE ( .BOTH. , #25 ) ;
#25 = SURFACE_SIDE_STYLE ('',( #26 ) ) ;
#26 = SURFACE_STYLE_FILL_AREA ( #159 ) ;
#27 = COLOUR_RGB ( '',0.7960784313725489700, 0.8235294117647058400, 0.9372549019607843100 ) ;
#28 = DIRECTION ( 'NONE',  ( 1.000000000000000000, 0.0000000000000000000, 0.0000000000000000000 ) ) ;
#29 = DIRECTION ( 'NONE',  ( 1.000000000000000000, 0.0000000000000000000, 0.0000000000000000000 ) ) ;
#30 = DIRECTION ( 'NONE',  ( -0.0000000000000000000, -0.0000000000000000000, 1.000000000000000000 ) ) ;
#31 = AXIS2_PLACEMENT_3D ( 'NONE', #155, #30, #29 ) ;
#32 = ORIENTED_EDGE ( 'NONE', *, *, #127, .T. ) ;
#33 = EDGE_CURVE ( 'NONE', #54, #92, #56, .T. ) ;
#34 = UNCERTAINTY_MEASURE_WITH_UNIT (LENGTH_MEASURE( 1.000000000000000100E-005 ), #37, 'distance_accuracy_value', 'NONE');
#35 =( NAMED_UNIT ( * ) SI_UNIT ( $, .STERADIAN. ) SOLID_ANGLE_UNIT ( ) );
#36 =( NAMED_UNIT ( * ) PLANE_ANGLE_UNIT ( ) SI_UNIT ( $, .RADIAN. ) );
#37 =( LENGTH_UNIT ( ) NAMED_UNIT ( * ) SI_UNIT ( .MILLI., .METRE. ) );
#38 = MECHANICAL_DESIGN_GEOMETRIC_PRESENTATION_REPRESENTATION (  '', ( #40 ), #164 ) ;
#39 = PRESENTATION_LAYER_ASSIGNMENT (  '', '', ( #40 ) ) ;
#40 = STYLED_ITEM ( 'NONE', ( #41 ), #75 ) ;
#41 = PRESENTATION_STYLE_ASSIGNMENT (( #42 ) ) ;
#42 = SURFACE_STYLE_USAGE ( .BOTH. , #43 ) ;
#43 = SURFACE_SIDE_STYLE ('',( #65 ) ) ;
#44 = FACE_OUTER_BOUND ( 'NONE', #188, .T. ) ;
#45 = FILL_AREA_STYLE_COLOUR ( '', #17 ) ;
#46 = ADVANCED_FACE ( 'NONE', ( #82 ), #95, .T. ) ;
#47 = ORIENTED_EDGE ( 'NONE', *, *, #131, .F. ) ;
#48 = EDGE_CURVE ( 'NONE', #132, #130, #122, .T. ) ;
#49 = ORIENTED_EDGE ( 'NONE', *, *, #48, .T. ) ;
#50 = EDGE_CURVE ( 'NONE', #180, #129, #117, .T. ) ;
#51 = ORIENTED_EDGE ( 'NONE', *, *, #191, .F. ) ;
#52 = EDGE_CURVE ( 'NONE', #130, #129, #112, .T. ) ;
#53 = ORIENTED_EDGE ( 'NONE', *, *, #50, .F. ) ;
#54 = VERTEX_POINT ( 'NONE', #123 ) ;
#55 = CARTESIAN_POINT ( 'NONE',  ( 0.0000000000000000000, 0.0000000000000000000, 0.3934852537994682500 ) ) ;
#56 = CIRCLE ( 'NONE', #105, 12.69999999999999900 ) ;
#57 =( LENGTH_UNIT ( ) NAMED_UNIT ( * ) SI_UNIT ( .MILLI., .METRE. ) );
#58 = MECHANICAL_DESIGN_GEOMETRIC_PRESENTATION_REPRESENTATION (  '', ( #60 ), #19 ) ;
#59 = PRESENTATION_LAYER_ASSIGNMENT (  '', '', ( #60 ) ) ;
#60 = STYLED_ITEM ( 'NONE', ( #61 ), #74 ) ;
#61 = PRESENTATION_STYLE_ASSIGNMENT (( #62 ) ) ;
#62 = SURFACE_STYLE_USAGE ( .BOTH. , #68 ) ;
#63 = SURFACE_STYLE_FILL_AREA ( #69 ) ;
#64 = TOROIDAL_SURFACE ( 'NONE', #136, -0.4990487068138637100, 91.99999999999998600 ) ;
#65 = SURFACE_STYLE_FILL_AREA ( #66 ) ;
#66 = FILL_AREA_STYLE ('',( #45 ) ) ;
#67 = AXIS2_PLACEMENT_3D ( 'NONE', #162, #161, #163 ) ;
#68 = SURFACE_SIDE_STYLE ('',( #63 ) ) ;
#69 = FILL_AREA_STYLE ('',( #133 ) ) ;
#70 = DIRECTION ( 'NONE',  ( 1.000000000000000000, 0.0000000000000000000, 0.0000000000000000000 ) ) ;
#71 = DIRECTION ( 'NONE',  ( -0.0000000000000000000, -0.0000000000000000000, 1.000000000000000000 ) ) ;
#72 = CONICAL_SURFACE ( 'NONE', #67, 12.55857864376269000, 0.7853981633974498300 ) ;
#73 = EDGE_LOOP ( 'NONE', ( #192, #174 ) ) ;
#74 = ADVANCED_FACE ( 'NONE', ( #97 ), #64, .T. ) ;
#75 = ADVANCED_FACE ( 'NONE', ( #108 ), #72, .T. ) ;
#76 = ORIENTED_EDGE ( 'NONE', *, *, #48, .F. ) ;
#77 = STYLED_ITEM ( 'NONE', ( #78 ), #9 ) ;
#78 = PRESENTATION_STYLE_ASSIGNMENT (( #79 ) ) ;
#79 = SURFACE_STYLE_USAGE ( .BOTH. , #80 ) ;
#80 = SURFACE_SIDE_STYLE ('',( #81 ) ) ;
#81 = SURFACE_STYLE_FILL_AREA ( #135 ) ;
#82 = FACE_OUTER_BOUND ( 'NONE', #179, .T. ) ;
#83 = ORIENTED_EDGE ( 'NONE', *, *, #50, .T. ) ;
#84 = ORIENTED_EDGE ( 'NONE', *, *, #90, .T. ) ;
#85 = UNCERTAINTY_MEASURE_WITH_UNIT (LENGTH_MEASURE( 1.000000000000000100E-005 ), #57, 'distance_accuracy_value', 'NONE');
#86 =( NAMED_UNIT ( * ) SI_UNIT ( $, .STERADIAN. ) SOLID_ANGLE_UNIT ( ) );
#87 =( NAMED_UNIT ( * ) PLANE_ANGLE_UNIT ( ) SI_UNIT ( $, .RADIAN. ) );
#88 = ORIENTED_EDGE ( 'NONE', *, *, #206, .T. ) ;
#89 = ORIENTED_EDGE ( 'NONE', *, *, #148, .F. ) ;
#90 = EDGE_CURVE ( 'NONE', #129, #130, #157, .T. ) ;
#91 = ORIENTED_EDGE ( 'NONE', *, *, #90, .F. ) ;
#92 = VERTEX_POINT ( 'NONE', #158 ) ;
#93 = ORIENTED_EDGE ( 'NONE', *, *, #94, .T. ) ;
#94 = EDGE_CURVE ( 'NONE', #205, #204, #156, .T. ) ;
#95 = CONICAL_SURFACE ( 'NONE', #101, 12.69999999999999900, 0.7853981633974473900 ) ;
#96 = DIRECTION ( 'NONE',  ( 0.0000000000000000000, 0.0000000000000000000, -1.000000000000000000 ) ) ;
#97 = FACE_OUTER_BOUND ( 'NONE', #190, .T. ) ;
#98 =( GEOMETRIC_REPRESENTATION_CONTEXT ( 3 ) GLOBAL_UNCERTAINTY_ASSIGNED_CONTEXT ( ( #165 ) ) GLOBAL_UNIT_ASSIGNED_CONTEXT ( ( #139, #167, #166 ) ) REPRESENTATION_CONTEXT ( 'NONE', 'WORKASPACE' ) );
#99 = ORIENTED_EDGE ( 'NONE', *, *, #52, .F. ) ;
#100 = ORIENTED_EDGE ( 'NONE', *, *, #137, .T. ) ;
#101 = AXIS2_PLACEMENT_3D ( 'NONE', #55, #96, #124 ) ;
#102 = DIRECTION ( 'NONE',  ( 1.000000000000000000, 0.0000000000000000000, 0.0000000000000000000 ) ) ;
#103 = DIRECTION ( 'NONE',  ( -0.0000000000000000000, -0.0000000000000000000, 1.000000000000000000 ) ) ;
#104 = CARTESIAN_POINT ( 'NONE',  ( 0.0000000000000000000, 0.0000000000000000000, -1.323672033725912900 ) ) ;
#105 = AXIS2_PLACEMENT_3D ( 'NONE', #104, #103, #102 ) ;
#106 = CARTESIAN_POINT ( 'NONE',  ( 12.69999999999999900, 1.555301434917138400E-015, 0.3934852537994682500 ) ) ;
#107 = AXIS2_PLACEMENT_3D ( 'NONE', #119, #71, #70 ) ;
#108 = FACE_OUTER_BOUND ( 'NONE', #196, .T. ) ;
#109 = FILL_AREA_STYLE_COLOUR ( '', #110 ) ;
#110 = COLOUR_RGB ( '',0.7960784313725489700, 0.8235294117647058400, 0.9372549019607843100 ) ;
#111 = ORIENTED_EDGE ( 'NONE', *, *, #206, .F. ) ;
#112 = CIRCLE ( 'NONE', #107, 12.69999999999999900 ) ;
#113 = COLOUR_RGB ( '',0.7960784313725489700, 0.8235294117647058400, 0.9372549019607843100 ) ;
#114 = DIRECTION ( 'NONE',  ( -0.7071067811865469100, 0.0000000000000000000, -0.7071067811865482400 ) ) ;
#115 = VECTOR ( 'NONE', #114, 999.9999999999998900 ) ;
#116 = CARTESIAN_POINT ( 'NONE',  ( -12.69999999999999900, 0.0000000000000000000, 0.3934852537994682500 ) ) ;
#117 = LINE ( 'NONE', #116, #115 ) ;
#118 = CARTESIAN_POINT ( 'NONE',  ( 0.0000000000000000000, 0.0000000000000000000, -90.53373984950754000 ) ) ;
#119 = CARTESIAN_POINT ( 'NONE',  ( 0.0000000000000000000, 0.0000000000000000000, 0.3934852537994682500 ) ) ;
#120 = DIRECTION ( 'NONE',  ( 0.7071067811865469100, 8.659560562354926700E-017, -0.7071067811865482400 ) ) ;
#121 = VECTOR ( 'NONE', #120, 999.9999999999998900 ) ;
#122 = LINE ( 'NONE', #106, #121 ) ;
#123 = CARTESIAN_POINT ( 'NONE',  ( -12.69999999999999900, 1.555301434917138400E-015, -1.323672033725912900 ) ) ;
#124 = DIRECTION ( 'NONE',  ( -1.000000000000000000, 0.0000000000000000000, 0.0000000000000000000 ) ) ;
#125 = ADVANCED_FACE ( 'NONE', ( #44 ), #225, .T. ) ;
#126 = ORIENTED_EDGE ( 'NONE', *, *, #201, .F. ) ;
#127 = EDGE_CURVE ( 'NONE', #132, #170, #223, .T. ) ;
#128 = ADVANCED_FACE ( 'NONE', ( #213 ), #246, .T. ) ;
#129 = VERTEX_POINT ( 'NONE', #269 ) ;
#130 = VERTEX_POINT ( 'NONE', #273 ) ;
#131 = EDGE_CURVE ( 'NONE', #132, #180, #252, .T. ) ;
#132 = VERTEX_POINT ( 'NONE', #276 ) ;
#133 = FILL_AREA_STYLE_COLOUR ( '', #113 ) ;
#134 = MANIFOLD_SOLID_BREP ( '24988-001-1-solid1', #189 ) ;
#135 = FILL_AREA_STYLE ('',( #138 ) ) ;
#136 = AXIS2_PLACEMENT_3D ( 'NONE', #118, #16, #18 ) ;
#137 = EDGE_CURVE ( 'NONE', #92, #54, #299, .T. ) ;
#138 = FILL_AREA_STYLE_COLOUR ( '', #150 ) ;
#139 =( LENGTH_UNIT ( ) NAMED_UNIT ( * ) SI_UNIT ( .MILLI., .METRE. ) );
#140 = MECHANICAL_DESIGN_GEOMETRIC_PRESENTATION_REPRESENTATION (  '', ( #142 ), #98 ) ;
#141 = PRESENTATION_LAYER_ASSIGNMENT (  '', '', ( #142 ) ) ;
#142 = STYLED_ITEM ( 'NONE', ( #143 ), #46 ) ;
#143 = PRESENTATION_STYLE_ASSIGNMENT (( #144 ) ) ;
#144 = SURFACE_STYLE_USAGE ( .BOTH. , #145 ) ;
#145 = SURFACE_SIDE_STYLE ('',( #146 ) ) ;
#146 = SURFACE_STYLE_FILL_AREA ( #147 ) ;
#147 = FILL_AREA_STYLE ('',( #109 ) ) ;
#148 = EDGE_CURVE ( 'NONE', #54, #129, #278, .T. ) ;
#149 = COLOUR_RGB ( '',0.7960784313725489700, 0.8235294117647058400, 0.9372549019607843100 ) ;
#150 = COLOUR_RGB ( '',0.7960784313725489700, 0.8235294117647058400, 0.9372549019607843100 ) ;
#151 = DIRECTION ( 'NONE',  ( 1.000000000000000000, 0.0000000000000000000, 0.0000000000000000000 ) ) ;
#152 = DIRECTION ( 'NONE',  ( -0.0000000000000000000, -0.0000000000000000000, 1.000000000000000000 ) ) ;
#153 = CARTESIAN_POINT ( 'NONE',  ( 0.0000000000000000000, 0.0000000000000000000, 0.3934852537994682500 ) ) ;
#154 = AXIS2_PLACEMENT_3D ( 'NONE', #153, #152, #151 ) ;
#155 = CARTESIAN_POINT ( 'NONE',  ( 0.0000000000000000000, 0.0000000000000000000, -1.465093389963222100 ) ) ;
#156 = CIRCLE ( 'NONE', #31, 12.55857864376269000 ) ;
#157 = CIRCLE ( 'NONE', #154, 12.69999999999999900 ) ;
#158 = CARTESIAN_POINT ( 'NONE',  ( 12.69999999999999900, 0.0000000000000000000, -1.323672033725912900 ) ) ;
#159 = FILL_AREA_STYLE ('',( #160 ) ) ;
#160 = FILL_AREA_STYLE_COLOUR ( '', #149 ) ;
#161 = DIRECTION ( 'NONE',  ( -0.0000000000000000000, -0.0000000000000000000, 1.000000000000000000 ) ) ;
#162 = CARTESIAN_POINT ( 'NONE',  ( 0.0000000000000000000, 0.0000000000000000000, -1.465093389963222100 ) ) ;
#163 = DIRECTION ( 'NONE',  ( 1.000000000000000000, 0.0000000000000000000, 0.0000000000000000000 ) ) ;
#164 =( GEOMETRIC_REPRESENTATION_CONTEXT ( 3 ) GLOBAL_UNCERTAINTY_ASSIGNED_CONTEXT ( ( #34 ) ) GLOBAL_UNIT_ASSIGNED_CONTEXT ( ( #37, #36, #35 ) ) REPRESENTATION_CONTEXT ( 'NONE', 'WORKASPACE' ) );
#165 = UNCERTAINTY_MEASURE_WITH_UNIT (LENGTH_MEASURE( 1.000000000000000100E-005 ), #139, 'distance_accuracy_value', 'NONE');
#166 =( NAMED_UNIT ( * ) SI_UNIT ( $, .STERADIAN. ) SOLID_ANGLE_UNIT ( ) );
#167 =( NAMED_UNIT ( * ) PLANE_ANGLE_UNIT ( ) SI_UNIT ( $, .RADIAN. ) );
#168 = ORIENTED_EDGE ( 'NONE', *, *, #33, .F. ) ;
#169 = ORIENTED_EDGE ( 'NONE', *, *, #137, .F. ) ;
#170 = VERTEX_POINT ( 'NONE', #294 ) ;
#171 = ADVANCED_FACE ( 'NONE', ( #296 ), #288, .T. ) ;
#172 = ADVANCED_FACE ( 'NONE', ( #318 ), #214, .F. ) ;
#173 = EDGE_CURVE ( 'NONE', #204, #205, #15, .T. ) ;
#174 = ORIENTED_EDGE ( 'NONE', *, *, #173, .F. ) ;
#175 = ORIENTED_EDGE ( 'NONE', *, *, #200, .F. ) ;
#176 = ORIENTED_EDGE ( 'NONE', *, *, #191, .T. ) ;
#177 = EDGE_LOOP ( 'NONE', ( #100, #183, #99, #111 ) ) ;
#178 = ORIENTED_EDGE ( 'NONE', *, *, #52, .T. ) ;
#179 = EDGE_LOOP ( 'NONE', ( #47, #49, #178, #53 ) ) ;
#180 = VERTEX_POINT ( 'NONE', #8 ) ;
#181 = ORIENTED_EDGE ( 'NONE', *, *, #197, .F. ) ;
#182 = ORIENTED_EDGE ( 'NONE', *, *, #200, .T. ) ;
#183 = ORIENTED_EDGE ( 'NONE', *, *, #148, .T. ) ;
#184 = ORIENTED_EDGE ( 'NONE', *, *, #33, .T. ) ;
#185 = ORIENTED_EDGE ( 'NONE', *, *, #173, .T. ) ;
#186 = ADVANCED_FACE ( 'NONE', ( #12 ), #327, .T. ) ;
#187 = ORIENTED_EDGE ( 'NONE', *, *, #197, .T. ) ;
#188 = EDGE_LOOP ( 'NONE', ( #76, #51, #83, #84 ) ) ;
#189 = CLOSED_SHELL ( 'NONE', ( #46, #128, #75, #203, #74, #172, #186, #171, #125 ) ) ;
#190 = EDGE_LOOP ( 'NONE', ( #126, #176, #32 ) ) ;
#191 = EDGE_CURVE ( 'NONE', #180, #132, #332, .T. ) ;
#192 = ORIENTED_EDGE ( 'NONE', *, *, #94, .F. ) ;
#193 = EDGE_LOOP ( 'NONE', ( #89, #184, #88, #91 ) ) ;
#194 = ORIENTED_EDGE ( 'NONE', *, *, #131, .T. ) ;
#195 = ORIENTED_EDGE ( 'NONE', *, *, #127, .F. ) ;
#196 = EDGE_LOOP ( 'NONE', ( #93, #182, #169, #181 ) ) ;
#197 = EDGE_CURVE ( 'NONE', #205, #92, #333, .T. ) ;
#198 = EDGE_LOOP ( 'NONE', ( #194, #202, #195 ) ) ;
#199 = EDGE_LOOP ( 'NONE', ( #175, #185, #187, #168 ) ) ;
#200 = EDGE_CURVE ( 'NONE', #204, #54, #371, .T. ) ;
#201 = EDGE_CURVE ( 'NONE', #180, #170, #372, .T. ) ;
#202 = ORIENTED_EDGE ( 'NONE', *, *, #201, .T. ) ;
#203 = ADVANCED_FACE ( 'NONE', ( #330 ), #350, .T. ) ;
#204 = VERTEX_POINT ( 'NONE', #331 ) ;
#205 = VERTEX_POINT ( 'NONE', #381 ) ;
#206 = EDGE_CURVE ( 'NONE', #92, #130, #343, .T. ) ;
#207 =( LENGTH_UNIT ( ) NAMED_UNIT ( * ) SI_UNIT ( .MILLI., .METRE. ) );
#208 = PRESENTATION_LAYER_ASSIGNMENT (  '', '', ( #209 ) ) ;
#209 = STYLED_ITEM ( 'NONE', ( #210 ), #128 ) ;
#210 = PRESENTATION_STYLE_ASSIGNMENT (( #215 ) ) ;
#211 = FILL_AREA_STYLE_COLOUR ( '', #212 ) ;
#212 = COLOUR_RGB ( '',0.7960784313725489700, 0.8235294117647058400, 0.9372549019607843100 ) ;
#213 = FACE_OUTER_BOUND ( 'NONE', #177, .T. ) ;
#214 = PLANE ( 'NONE',  #220 ) ;
#215 = SURFACE_STYLE_USAGE ( .BOTH. , #216 ) ;
#216 = SURFACE_SIDE_STYLE ('',( #234 ) ) ;
#217 =( GEOMETRIC_REPRESENTATION_CONTEXT ( 3 ) GLOBAL_UNCERTAINTY_ASSIGNED_CONTEXT ( ( #218 ) ) GLOBAL_UNIT_ASSIGNED_CONTEXT ( ( #207, #231, #219 ) ) REPRESENTATION_CONTEXT ( 'NONE', 'WORKASPACE' ) );
#218 = UNCERTAINTY_MEASURE_WITH_UNIT (LENGTH_MEASURE( 1.000000000000000100E-005 ), #207, 'distance_accuracy_value', 'NONE');
#219 =( NAMED_UNIT ( * ) SI_UNIT ( $, .STERADIAN. ) SOLID_ANGLE_UNIT ( ) );
#220 = AXIS2_PLACEMENT_3D ( 'NONE', #222, #235, #227 ) ;
#221 = DIRECTION ( 'NONE',  ( 0.0000000000000000000, -1.000000000000000000, 0.0000000000000000000 ) ) ;
#222 = CARTESIAN_POINT ( 'NONE',  ( 0.0000000000000000000, 0.0000000000000000000, -1.465093389963222600 ) ) ;
#223 = CIRCLE ( 'NONE', #239, 91.99999999999998600 ) ;
#224 = FILL_AREA_STYLE ('',( #211 ) ) ;
#225 = CONICAL_SURFACE ( 'NONE', #236, 12.69999999999999900, 0.7853981633974473900 ) ;
#226 = DIRECTION ( 'NONE',  ( 0.0000000000000000000, 0.0000000000000000000, -1.000000000000000000 ) ) ;
#227 = DIRECTION ( 'NONE',  ( 1.000000000000000000, 0.0000000000000000000, 0.0000000000000000000 ) ) ;
#228 = PRESENTATION_LAYER_ASSIGNMENT (  '', '', ( #77 ) ) ;
#229 =( LENGTH_UNIT ( ) NAMED_UNIT ( * ) SI_UNIT ( .MILLI., .METRE. ) );
#230 = MECHANICAL_DESIGN_GEOMETRIC_PRESENTATION_REPRESENTATION (  '', ( #77 ), #383 ) ;
#231 =( NAMED_UNIT ( * ) PLANE_ANGLE_UNIT ( ) SI_UNIT ( $, .RADIAN. ) );
#232 = MECHANICAL_DESIGN_GEOMETRIC_PRESENTATION_REPRESENTATION (  '', ( #209 ), #217 ) ;
#233 = CARTESIAN_POINT ( 'NONE',  ( -0.4990487068138637100, 0.0000000000000000000, -90.53373984950754000 ) ) ;
#234 = SURFACE_STYLE_FILL_AREA ( #224 ) ;
#235 = DIRECTION ( 'NONE',  ( 0.0000000000000000000, -0.0000000000000000000, 1.000000000000000000 ) ) ;
#236 = AXIS2_PLACEMENT_3D ( 'NONE', #237, #226, #240 ) ;
#237 = CARTESIAN_POINT ( 'NONE',  ( 0.0000000000000000000, 0.0000000000000000000, 0.3934852537994682500 ) ) ;
#238 = DIRECTION ( 'NONE',  ( 0.0000000000000000000, 0.0000000000000000000, -1.000000000000000000 ) ) ;
#239 = AXIS2_PLACEMENT_3D ( 'NONE', #233, #221, #238 ) ;
#240 = DIRECTION ( 'NONE',  ( -1.000000000000000000, 0.0000000000000000000, 0.0000000000000000000 ) ) ;
#241 = SURFACE_STYLE_FILL_AREA ( #275 ) ;
#242 = DIRECTION ( 'NONE',  ( 1.000000000000000000, 0.0000000000000000000, 0.0000000000000000000 ) ) ;
#243 = SURFACE_SIDE_STYLE ('',( #272 ) ) ;
#244 = FILL_AREA_STYLE ('',( #254 ) ) ;
#245 = UNCERTAINTY_MEASURE_WITH_UNIT (LENGTH_MEASURE( 1.000000000000000100E-005 ), #268, 'distance_accuracy_value', 'NONE');
#246 = CYLINDRICAL_SURFACE ( 'NONE', #261, 12.69999999999999900 ) ;
#247 = SURFACE_STYLE_USAGE ( .BOTH. , #248 ) ;
#248 = SURFACE_SIDE_STYLE ('',( #241 ) ) ;
#249 = COLOUR_RGB ( '',0.7960784313725489700, 0.8235294117647058400, 0.9372549019607843100 ) ;
#250 =( NAMED_UNIT ( * ) SI_UNIT ( $, .STERADIAN. ) SOLID_ANGLE_UNIT ( ) );
#251 =( NAMED_UNIT ( * ) PLANE_ANGLE_UNIT ( ) SI_UNIT ( $, .RADIAN. ) );
#252 = CIRCLE ( 'NONE', #274, 12.55857864376269000 ) ;
#253 = SURFACE_STYLE_USAGE ( .BOTH. , #243 ) ;
#254 = FILL_AREA_STYLE_COLOUR ( '', #27 ) ;
#255 = MECHANICAL_DESIGN_GEOMETRIC_PRESENTATION_REPRESENTATION (  '', ( #257 ), #10 ) ;
#256 = PRESENTATION_LAYER_ASSIGNMENT (  '', '', ( #257 ) ) ;
#257 = STYLED_ITEM ( 'NONE', ( #258 ), #134 ) ;
#258 = PRESENTATION_STYLE_ASSIGNMENT (( #247 ) ) ;
#259 = DIRECTION ( 'NONE',  ( -0.0000000000000000000, -0.0000000000000000000, 1.000000000000000000 ) ) ;
#260 = CARTESIAN_POINT ( 'NONE',  ( 0.0000000000000000000, 0.0000000000000000000, 1.464906610036777400 ) ) ;
#261 = AXIS2_PLACEMENT_3D ( 'NONE', #260, #259, #242 ) ;
#262 = FILL_AREA_STYLE_COLOUR ( '', #249 ) ;
#263 = STYLED_ITEM ( 'NONE', ( #264 ), #186 ) ;
#264 = PRESENTATION_STYLE_ASSIGNMENT (( #253 ) ) ;
#265 = DIRECTION ( 'NONE',  ( 1.000000000000000000, 0.0000000000000000000, 0.0000000000000000000 ) ) ;
#266 = DIRECTION ( 'NONE',  ( -0.0000000000000000000, -0.0000000000000000000, 1.000000000000000000 ) ) ;
#267 = CARTESIAN_POINT ( 'NONE',  ( 0.0000000000000000000, 0.0000000000000000000, 0.5349066100367782000 ) ) ;
#268 =( LENGTH_UNIT ( ) NAMED_UNIT ( * ) SI_UNIT ( .MILLI., .METRE. ) );
#269 = CARTESIAN_POINT ( 'NONE',  ( -12.69999999999999900, 1.555301434917138400E-015, 0.3934852537994682500 ) ) ;
#270 = MECHANICAL_DESIGN_GEOMETRIC_PRESENTATION_REPRESENTATION (  '', ( #263 ), #366 ) ;
#271 = PRESENTATION_LAYER_ASSIGNMENT (  '', '', ( #263 ) ) ;
#272 = SURFACE_STYLE_FILL_AREA ( #244 ) ;
#273 = CARTESIAN_POINT ( 'NONE',  ( 12.69999999999999900, 0.0000000000000000000, 0.3934852537994682500 ) ) ;
#274 = AXIS2_PLACEMENT_3D ( 'NONE', #267, #266, #265 ) ;
#275 = FILL_AREA_STYLE ('',( #262 ) ) ;
#276 = CARTESIAN_POINT ( 'NONE',  ( 12.55857864376269000, 0.0000000000000000000, 0.5349066100367685400 ) ) ;
#277 = COLOUR_RGB ( '',0.7960784313725489700, 0.8235294117647058400, 0.9372549019607843100 ) ;
#278 = LINE ( 'NONE', #303, #302 ) ;
#279 = DIRECTION ( 'NONE',  ( -0.0000000000000000000, -0.0000000000000000000, 1.000000000000000000 ) ) ;
#280 = DIRECTION ( 'NONE',  ( 1.000000000000000000, 0.0000000000000000000, 0.0000000000000000000 ) ) ;
#281 = CARTESIAN_POINT ( 'NONE',  ( 0.0000000000000000000, 0.0000000000000000000, -1.323672033725912900 ) ) ;
#282 = SURFACE_STYLE_USAGE ( .BOTH. , #283 ) ;
#283 = SURFACE_SIDE_STYLE ('',( #314 ) ) ;
#284 = CARTESIAN_POINT ( 'NONE',  ( 0.0000000000000000000, 0.0000000000000000000, 1.464906610036777400 ) ) ;
#285 =( NAMED_UNIT ( * ) SI_UNIT ( $, .STERADIAN. ) SOLID_ANGLE_UNIT ( ) );
#286 =( NAMED_UNIT ( * ) PLANE_ANGLE_UNIT ( ) SI_UNIT ( $, .RADIAN. ) );
#287 = DIRECTION ( 'NONE',  ( -0.0000000000000000000, -0.0000000000000000000, 1.000000000000000000 ) ) ;
#288 = CYLINDRICAL_SURFACE ( 'NONE', #297, 12.69999999999999900 ) ;
#289 = PRESENTATION_STYLE_ASSIGNMENT (( #282 ) ) ;
#290 =( NAMED_UNIT ( * ) PLANE_ANGLE_UNIT ( ) SI_UNIT ( $, .RADIAN. ) );
#291 =( LENGTH_UNIT ( ) NAMED_UNIT ( * ) SI_UNIT ( .MILLI., .METRE. ) );
#292 = MECHANICAL_DESIGN_GEOMETRIC_PRESENTATION_REPRESENTATION (  '', ( #308 ), #320 ) ;
#293 = FILL_AREA_STYLE ('',( #295 ) ) ;
#294 = CARTESIAN_POINT ( 'NONE',  ( 0.0000000000000000000, 0.0000000000000000000, 1.464906610036777400 ) ) ;
#295 = FILL_AREA_STYLE_COLOUR ( '', #277 ) ;
#296 = FACE_OUTER_BOUND ( 'NONE', #193, .T. ) ;
#297 = AXIS2_PLACEMENT_3D ( 'NONE', #284, #287, #280 ) ;
#298 = DIRECTION ( 'NONE',  ( 1.000000000000000000, 0.0000000000000000000, 0.0000000000000000000 ) ) ;
#299 = CIRCLE ( 'NONE', #300, 12.69999999999999900 ) ;
#300 = AXIS2_PLACEMENT_3D ( 'NONE', #281, #279, #298 ) ;
#301 = DIRECTION ( 'NONE',  ( -0.0000000000000000000, -0.0000000000000000000, 1.000000000000000000 ) ) ;
#302 = VECTOR ( 'NONE', #301, 1000.000000000000000 ) ;
#303 = CARTESIAN_POINT ( 'NONE',  ( -12.69999999999999900, 1.555301434917138400E-015, 1.464906610036777400 ) ) ;
#304 = UNCERTAINTY_MEASURE_WITH_UNIT (LENGTH_MEASURE( 1.000000000000000100E-005 ), #309, 'distance_accuracy_value', 'NONE');
#305 =( NAMED_UNIT ( * ) SI_UNIT ( $, .STERADIAN. ) SOLID_ANGLE_UNIT ( ) );
#306 =( NAMED_UNIT ( * ) PLANE_ANGLE_UNIT ( ) SI_UNIT ( $, .RADIAN. ) );
#307 = PRESENTATION_LAYER_ASSIGNMENT (  '', '', ( #308 ) ) ;
#308 = STYLED_ITEM ( 'NONE', ( #289 ), #171 ) ;
#309 =( LENGTH_UNIT ( ) NAMED_UNIT ( * ) SI_UNIT ( .MILLI., .METRE. ) );
#310 = MECHANICAL_DESIGN_GEOMETRIC_PRESENTATION_REPRESENTATION (  '', ( #312 ), #11 ) ;
#311 = PRESENTATION_LAYER_ASSIGNMENT (  '', '', ( #312 ) ) ;
#312 = STYLED_ITEM ( 'NONE', ( #313 ), #172 ) ;
#313 = PRESENTATION_STYLE_ASSIGNMENT (( #322 ) ) ;
#314 = SURFACE_STYLE_FILL_AREA ( #293 ) ;
#315 = FILL_AREA_STYLE ('',( #317 ) ) ;
#316 = UNCERTAINTY_MEASURE_WITH_UNIT (LENGTH_MEASURE( 1.000000000000000100E-005 ), #291, 'distance_accuracy_value', 'NONE');
#317 = FILL_AREA_STYLE_COLOUR ( '', #325 ) ;
#318 = FACE_OUTER_BOUND ( 'NONE', #73, .T. ) ;
#319 = SURFACE_STYLE_FILL_AREA ( #315 ) ;
#320 =( GEOMETRIC_REPRESENTATION_CONTEXT ( 3 ) GLOBAL_UNCERTAINTY_ASSIGNED_CONTEXT ( ( #316 ) ) GLOBAL_UNIT_ASSIGNED_CONTEXT ( ( #291, #290, #321 ) ) REPRESENTATION_CONTEXT ( 'NONE', 'WORKASPACE' ) );
#321 =( NAMED_UNIT ( * ) SI_UNIT ( $, .STERADIAN. ) SOLID_ANGLE_UNIT ( ) );
#322 = SURFACE_STYLE_USAGE ( .BOTH. , #323 ) ;
#323 = SURFACE_SIDE_STYLE ('',( #319 ) ) ;
#324 = UNCERTAINTY_MEASURE_WITH_UNIT (LENGTH_MEASURE( 1.000000000000000100E-005 ), #7, 'distance_accuracy_value', 'NONE');
#325 = COLOUR_RGB ( '',0.7960784313725489700, 0.8235294117647058400, 0.9372549019607843100 ) ;
#326 = AXIS2_PLACEMENT_3D ( 'NONE', #354, #338, #358 ) ;
#327 = CONICAL_SURFACE ( 'NONE', #326, 12.55857864376269000, 0.7853981633974498300 ) ;
#328 = FILL_AREA_STYLE_COLOUR ( '', #329 ) ;
#329 = COLOUR_RGB ( '',0.7960784313725489700, 0.8235294117647058400, 0.9372549019607843100 ) ;
#330 = FACE_OUTER_BOUND ( 'NONE', #198, .T. ) ;
#331 = CARTESIAN_POINT ( 'NONE',  ( -12.55857864376269000, 1.546641874354783400E-015, -1.465093389963222100 ) ) ;
#332 = CIRCLE ( 'NONE', #340, 12.55857864376269000 ) ;
#333 = LINE ( 'NONE', #339, #348 ) ;
#334 = SURFACE_SIDE_STYLE ('',( #355 ) ) ;
#335 = DIRECTION ( 'NONE',  ( -1.000000000000000000, 1.224646799147353200E-016, 0.0000000000000000000 ) ) ;
#336 = DIRECTION ( 'NONE',  ( 1.224646799147353200E-016, 1.000000000000000000, 0.0000000000000000000 ) ) ;
#337 = AXIS2_PLACEMENT_3D ( 'NONE', #345, #344, #342 ) ;
#338 = DIRECTION ( 'NONE',  ( -0.0000000000000000000, -0.0000000000000000000, 1.000000000000000000 ) ) ;
#339 = CARTESIAN_POINT ( 'NONE',  ( 12.55857864376269000, 0.0000000000000000000, -1.465093389963222100 ) ) ;
#340 = AXIS2_PLACEMENT_3D ( 'NONE', #353, #367, #349 ) ;
#341 = SURFACE_STYLE_USAGE ( .BOTH. , #334 ) ;
#342 = DIRECTION ( 'NONE',  ( 1.000000000000000000, 0.0000000000000000000, 0.0000000000000000000 ) ) ;
#343 = LINE ( 'NONE', #377, #376 ) ;
#344 = DIRECTION ( 'NONE',  ( -0.0000000000000000000, -0.0000000000000000000, 1.000000000000000000 ) ) ;
#345 = CARTESIAN_POINT ( 'NONE',  ( 0.0000000000000000000, 0.0000000000000000000, -90.53373984950754000 ) ) ;
#346 = AXIS2_PLACEMENT_3D ( 'NONE', #351, #336, #335 ) ;
#347 = DIRECTION ( 'NONE',  ( 0.7071067811865486800, 0.0000000000000000000, 0.7071067811865464600 ) ) ;
#348 = VECTOR ( 'NONE', #347, 999.9999999999998900 ) ;
#349 = DIRECTION ( 'NONE',  ( 1.000000000000000000, 0.0000000000000000000, 0.0000000000000000000 ) ) ;
#350 = TOROIDAL_SURFACE ( 'NONE', #337, -0.4990487068138637100, 91.99999999999998600 ) ;
#351 = CARTESIAN_POINT ( 'NONE',  ( 0.4990487068138637100, -6.111584014182241700E-017, -90.53373984950754000 ) ) ;
#352 = FILL_AREA_STYLE ('',( #328 ) ) ;
#353 = CARTESIAN_POINT ( 'NONE',  ( 0.0000000000000000000, 0.0000000000000000000, 0.5349066100367782000 ) ) ;
#354 = CARTESIAN_POINT ( 'NONE',  ( 0.0000000000000000000, 0.0000000000000000000, -1.465093389963222100 ) ) ;
#355 = SURFACE_STYLE_FILL_AREA ( #352 ) ;
#356 =( LENGTH_UNIT ( ) NAMED_UNIT ( * ) SI_UNIT ( .MILLI., .METRE. ) );
#357 = MECHANICAL_DESIGN_GEOMETRIC_PRESENTATION_REPRESENTATION (  '', ( #379 ), #362 ) ;
#358 = DIRECTION ( 'NONE',  ( 1.000000000000000000, 0.0000000000000000000, 0.0000000000000000000 ) ) ;
#359 =( GEOMETRIC_REPRESENTATION_CONTEXT ( 3 ) GLOBAL_UNCERTAINTY_ASSIGNED_CONTEXT ( ( #360 ) ) GLOBAL_UNIT_ASSIGNED_CONTEXT ( ( #374, #373, #361 ) ) REPRESENTATION_CONTEXT ( 'NONE', 'WORKASPACE' ) );
#360 = UNCERTAINTY_MEASURE_WITH_UNIT (LENGTH_MEASURE( 1.000000000000000100E-005 ), #374, 'distance_accuracy_value', 'NONE');
#361 =( NAMED_UNIT ( * ) SI_UNIT ( $, .STERADIAN. ) SOLID_ANGLE_UNIT ( ) );
#362 =( GEOMETRIC_REPRESENTATION_CONTEXT ( 3 ) GLOBAL_UNCERTAINTY_ASSIGNED_CONTEXT ( ( #363 ) ) GLOBAL_UNIT_ASSIGNED_CONTEXT ( ( #356, #365, #364 ) ) REPRESENTATION_CONTEXT ( 'NONE', 'WORKASPACE' ) );
#363 = UNCERTAINTY_MEASURE_WITH_UNIT (LENGTH_MEASURE( 1.000000000000000100E-005 ), #356, 'distance_accuracy_value', 'NONE');
#364 =( NAMED_UNIT ( * ) SI_UNIT ( $, .STERADIAN. ) SOLID_ANGLE_UNIT ( ) );
#365 =( NAMED_UNIT ( * ) PLANE_ANGLE_UNIT ( ) SI_UNIT ( $, .RADIAN. ) );
#366 =( GEOMETRIC_REPRESENTATION_CONTEXT ( 3 ) GLOBAL_UNCERTAINTY_ASSIGNED_CONTEXT ( ( #324 ) ) GLOBAL_UNIT_ASSIGNED_CONTEXT ( ( #7, #286, #285 ) ) REPRESENTATION_CONTEXT ( 'NONE', 'WORKASPACE' ) );
#367 = DIRECTION ( 'NONE',  ( -0.0000000000000000000, -0.0000000000000000000, 1.000000000000000000 ) ) ;
#368 = DIRECTION ( 'NONE',  ( -0.7071067811865486800, 8.659560562354947600E-017, 0.7071067811865464600 ) ) ;
#369 = VECTOR ( 'NONE', #368, 999.9999999999998900 ) ;
#370 = CARTESIAN_POINT ( 'NONE',  ( -12.55857864376269000, 1.537982313792428700E-015, -1.465093389963222100 ) ) ;
#371 = LINE ( 'NONE', #370, #369 ) ;
#372 = CIRCLE ( 'NONE', #346, 91.99999999999998600 ) ;
#373 =( NAMED_UNIT ( * ) PLANE_ANGLE_UNIT ( ) SI_UNIT ( $, .RADIAN. ) );
#374 =( LENGTH_UNIT ( ) NAMED_UNIT ( * ) SI_UNIT ( .MILLI., .METRE. ) );
#375 = DIRECTION ( 'NONE',  ( -0.0000000000000000000, -0.0000000000000000000, 1.000000000000000000 ) ) ;
#376 = VECTOR ( 'NONE', #375, 1000.000000000000000 ) ;
#377 = CARTESIAN_POINT ( 'NONE',  ( 12.69999999999999900, 0.0000000000000000000, 1.464906610036777400 ) ) ;
#378 = PRESENTATION_LAYER_ASSIGNMENT (  '', '', ( #379 ) ) ;
#379 = STYLED_ITEM ( 'NONE', ( #380 ), #203 ) ;
#380 = PRESENTATION_STYLE_ASSIGNMENT (( #341 ) ) ;
#381 = CARTESIAN_POINT ( 'NONE',  ( 12.55857864376269000, 0.0000000000000000000, -1.465093389963222100 ) ) ;
#382 = UNCERTAINTY_MEASURE_WITH_UNIT (LENGTH_MEASURE( 1.000000000000000100E-005 ), #229, 'distance_accuracy_value', 'NONE');
#383 =( GEOMETRIC_REPRESENTATION_CONTEXT ( 3 ) GLOBAL_UNCERTAINTY_ASSIGNED_CONTEXT ( ( #382 ) ) GLOBAL_UNIT_ASSIGNED_CONTEXT ( ( #229, #385, #384 ) ) REPRESENTATION_CONTEXT ( 'NONE', 'WORKASPACE' ) );
#384 =( NAMED_UNIT ( * ) SI_UNIT ( $, .STERADIAN. ) SOLID_ANGLE_UNIT ( ) );
#385 =( NAMED_UNIT ( * ) PLANE_ANGLE_UNIT ( ) SI_UNIT ( $, .RADIAN. ) );
#386 = AXIS2_PLACEMENT_3D ( 'NONE', #387, #388, #389 ) ;
#387 = CARTESIAN_POINT ( 'NONE',  ( 0.0000000000000000000, 0.0000000000000000000, 0.0000000000000000000 ) ) ;
#388 = DIRECTION ( 'NONE',  ( 0.0000000000000000000, 0.0000000000000000000, 1.000000000000000000 ) ) ;
#389 = DIRECTION ( 'NONE',  ( 1.000000000000000000, 0.0000000000000000000, 0.0000000000000000000 ) ) ;
#390 = APPLICATION_PROTOCOL_DEFINITION ( 'draft international standard', 'automotive_design', 1998, #397 ) ;
#391 = PRODUCT_RELATED_PRODUCT_CATEGORY ( 'part', '', ( #399 ) ) ;
#392 = APPLICATION_PROTOCOL_DEFINITION ( 'draft international standard', 'automotive_design', 1998, #393 ) ;
#393 = APPLICATION_CONTEXT ( 'automotive_design' ) ;
#394 = PRODUCT_CONTEXT ( 'NONE', #393, 'mechanical' ) ;
#395 = PRODUCT_DEFINITION_FORMATION_WITH_SPECIFIED_SOURCE ( 'ANY', '', #399, .NOT_KNOWN. ) ;
#396 = PRODUCT_DEFINITION_CONTEXT ( 'detailed design', #397, 'design' ) ;
#397 = APPLICATION_CONTEXT ( 'automotive_design' ) ;
#398 = PRODUCT_DEFINITION ( 'UNKNOWN', '', #395, #396 ) ;
#399 = PRODUCT ( '24988-E0W', '24988-E0W', '', ( #394 ) ) ;
#400 = SHAPE_DEFINITION_REPRESENTATION ( #401, #9 ) ;
#401 = PRODUCT_DEFINITION_SHAPE ( 'NONE', 'NONE',  #398 ) ;
ENDSEC;
END-ISO-10303-21;
