ISO-10303-21;
HEADER;
FILE_DESCRIPTION (( 'STEP AP203' ),
    '1' );
FILE_NAME ('Web Model 31432_46675.step',
    '2017-04-10T18:14:18',
    ( '' ),
    ( '' ),
    'SwSTEP 2.0',
    'SolidWorks 2016',
    '' );
FILE_SCHEMA (( 'CONFIG_CONTROL_DESIGN' ));
ENDSEC;

DATA;
#1 = VECTOR ( 'NONE', #51, 1000.000000000000000 ) ;
#2 = FACE_OUTER_BOUND ( 'NONE', #19, .T. ) ;
#3 = DIRECTION ( 'NONE',  ( 1.000000000000000000, 0.0000000000000000000, 0.0000000000000000000 ) ) ;
#4 = CARTESIAN_POINT ( 'NONE',  ( -25.50000000000000700, 38.00000000000000700, 1.500000000000000000 ) ) ;
#5 = AXIS2_PLACEMENT_3D ( 'NONE', #184, #84, #3 ) ;
#6 = CARTESIAN_POINT ( 'NONE',  ( 25.49999999999998600, 38.00000000000000700, -1.500000000000000000 ) ) ;
#7 = PERSON_AND_ORGANIZATION ( #122, #77 ) ;
#8 = COORDINATED_UNIVERSAL_TIME_OFFSET ( 5, 0, .BEHIND. ) ;
#9 = ORIENTED_EDGE ( 'NONE', *, *, #45, .F. ) ;
#10 = PERSON_AND_ORGANIZATION_ROLE ( 'design_owner' ) ;
#11 = CALENDAR_DATE ( 2017, 10, 4 ) ;
#12 = PERSON_AND_ORGANIZATION ( #122, #77 ) ;
#13 = EDGE_CURVE ( 'NONE', #65, #196, #202, .T. ) ;
#14 = APPROVAL_PERSON_ORGANIZATION ( #7, #60, #56 ) ;
#15 = VERTEX_POINT ( 'NONE', #6 ) ;
#16 = LOCAL_TIME ( 14, 14, 18.00000000000000000, #132 ) ;
#17 = FACE_OUTER_BOUND ( 'NONE', #219, .T. ) ;
#18 = DATE_AND_TIME ( #114, #16 ) ;
#19 = EDGE_LOOP ( 'NONE', ( #143, #91, #228, #49 ) ) ;
#20 = CARTESIAN_POINT ( 'NONE',  ( -25.50000000000000700, 38.00000000000000700, -1.500000000000000000 ) ) ;
#21 = CARTESIAN_POINT ( 'NONE',  ( 25.49999999999998600, 38.00000000000000700, 1.500000000000000000 ) ) ;
#22 = APPROVAL_ROLE ( '' ) ;
#23 = ORIENTED_EDGE ( 'NONE', *, *, #224, .T. ) ;
#24 = LINE ( 'NONE', #110, #117 ) ;
#25 = CARTESIAN_POINT ( 'NONE',  ( -25.50000000000000700, 38.00000000000000700, 1.500000000000000000 ) ) ;
#26 = DIRECTION ( 'NONE',  ( 1.000000000000000000, 0.0000000000000000000, 0.0000000000000000000 ) ) ;
#27 = PRODUCT_DEFINITION ( 'UNKNOWN', '', #85, #197 ) ;
#28 = ORIENTED_EDGE ( 'NONE', *, *, #138, .F. ) ;
#29 = DIRECTION ( 'NONE',  ( -1.000000000000000000, -0.0000000000000000000, -0.0000000000000000000 ) ) ;
#30 = MECHANICAL_CONTEXT ( 'NONE', #213, 'mechanical' ) ;
#31 = EDGE_CURVE ( 'NONE', #182, #15, #126, .T. ) ;
#32 = CARTESIAN_POINT ( 'NONE',  ( 0.0000000000000000000, 0.0000000000000000000, 1.500000000000000000 ) ) ;
#33 = CARTESIAN_POINT ( 'NONE',  ( 0.0000000000000000000, 0.0000000000000000000, 0.0000000000000000000 ) ) ;
#34 = VECTOR ( 'NONE', #204, 1000.000000000000000 ) ;
#35 = DIRECTION ( 'NONE',  ( 0.0000000000000000000, 1.000000000000000000, 0.0000000000000000000 ) ) ;
#36 = DIRECTION ( 'NONE',  ( -1.369518533665900100E-016, 1.000000000000000000, 0.0000000000000000000 ) ) ;
#37 = ORIENTED_EDGE ( 'NONE', *, *, #69, .T. ) ;
#38 = EDGE_CURVE ( 'NONE', #96, #154, #205, .T. ) ;
#39 = ORIENTED_EDGE ( 'NONE', *, *, #79, .F. ) ;
#40 = ORIENTED_EDGE ( 'NONE', *, *, #138, .T. ) ;
#41 = CLOSED_SHELL ( 'NONE', ( #189, #195, #186, #164, #190, #165 ) ) ;
#42 = ORIENTED_EDGE ( 'NONE', *, *, #123, .T. ) ;
#43 = APPROVAL_STATUS ( 'not_yet_approved' ) ;
#44 = LINE ( 'NONE', #57, #55 ) ;
#45 = EDGE_CURVE ( 'NONE', #154, #182, #167, .T. ) ;
#46 = ORIENTED_EDGE ( 'NONE', *, *, #101, .T. ) ;
#47 = CARTESIAN_POINT ( 'NONE',  ( 25.49999999999998600, 38.00000000000000700, -1.500000000000000000 ) ) ;
#48 = CC_DESIGN_PERSON_AND_ORGANIZATION_ASSIGNMENT ( #148, #236, ( #27 ) ) ;
#49 = ORIENTED_EDGE ( 'NONE', *, *, #101, .F. ) ;
#50 = DIRECTION ( 'NONE',  ( 0.0000000000000000000, 0.0000000000000000000, 1.000000000000000000 ) ) ;
#51 = DIRECTION ( 'NONE',  ( -1.000000000000000000, -0.0000000000000000000, -0.0000000000000000000 ) ) ;
#52 = AXIS2_PLACEMENT_3D ( 'NONE', #32, #71, #26 ) ;
#53 = VERTEX_POINT ( 'NONE', #82 ) ;
#54 = ORIENTED_EDGE ( 'NONE', *, *, #69, .F. ) ;
#55 = VECTOR ( 'NONE', #211, 1000.000000000000000 ) ;
#56 = APPROVAL_ROLE ( '' ) ;
#57 = CARTESIAN_POINT ( 'NONE',  ( -25.50000000000000700, 38.00000000000000700, 1.500000000000000000 ) ) ;
#58 = CARTESIAN_POINT ( 'NONE',  ( 25.49999999999998600, 38.00000000000000700, 1.500000000000000000 ) ) ;
#59 =( LENGTH_UNIT ( ) NAMED_UNIT ( * ) SI_UNIT ( .MILLI., .METRE. ) );
#60 = APPROVAL ( #43, 'UNSPECIFIED' ) ;
#61 = DATE_TIME_ROLE ( 'classification_date' ) ;
#62 = EDGE_LOOP ( 'NONE', ( #37, #168, #222, #97 ) ) ;
#63 = APPROVAL_DATE_TIME ( #135, #102 ) ;
#64 = AXIS2_PLACEMENT_3D ( 'NONE', #185, #179, #36 ) ;
#65 = VERTEX_POINT ( 'NONE', #21 ) ;
#66 = APPROVAL_STATUS ( 'not_yet_approved' ) ;
#67 = CARTESIAN_POINT ( 'NONE',  ( -25.50000000000000700, 38.00000000000000700, 1.500000000000000000 ) ) ;
#68 = VECTOR ( 'NONE', #187, 1000.000000000000000 ) ;
#69 = EDGE_CURVE ( 'NONE', #154, #65, #90, .T. ) ;
#70 = PERSON_AND_ORGANIZATION ( #122, #77 ) ;
#71 = DIRECTION ( 'NONE',  ( -0.0000000000000000000, 0.0000000000000000000, 1.000000000000000000 ) ) ;
#72 = ORIENTED_EDGE ( 'NONE', *, *, #38, .F. ) ;
#73 = PRODUCT_RELATED_PRODUCT_CATEGORY ( 'detail', '', ( #170 ) ) ;
#74 = VECTOR ( 'NONE', #146, 1000.000000000000000 ) ;
#75 = CARTESIAN_POINT ( 'NONE',  ( 25.49999999999999600, -37.99999999999999300, -1.500000000000000000 ) ) ;
#76 = LOCAL_TIME ( 14, 14, 18.00000000000000000, #162 ) ;
#77 = ORGANIZATION ( 'UNSPECIFIED', 'UNSPECIFIED', '' ) ;
#78 = VECTOR ( 'NONE', #180, 1000.000000000000000 ) ;
#79 = EDGE_CURVE ( 'NONE', #196, #174, #44, .T. ) ;
#80 = CALENDAR_DATE ( 2017, 10, 4 ) ;
#81 = CC_DESIGN_PERSON_AND_ORGANIZATION_ASSIGNMENT ( #201, #10, ( #170 ) ) ;
#82 = CARTESIAN_POINT ( 'NONE',  ( -25.50000000000000000, -37.99999999999999300, -1.500000000000000000 ) ) ;
#83 = LINE ( 'NONE', #25, #192 ) ;
#84 = DIRECTION ( 'NONE',  ( -0.0000000000000000000, 0.0000000000000000000, 1.000000000000000000 ) ) ;
#85 = PRODUCT_DEFINITION_FORMATION_WITH_SPECIFIED_SOURCE ( 'ANY', '', #170, .NOT_KNOWN. ) ;
#86 = FACE_OUTER_BOUND ( 'NONE', #106, .T. ) ;
#87 = COORDINATED_UNIVERSAL_TIME_OFFSET ( 5, 0, .BEHIND. ) ;
#88 = ORIENTED_EDGE ( 'NONE', *, *, #45, .T. ) ;
#89 = CARTESIAN_POINT ( 'NONE',  ( 25.49999999999998600, 38.00000000000000700, 1.500000000000000000 ) ) ;
#90 = LINE ( 'NONE', #89, #159 ) ;
#91 = ORIENTED_EDGE ( 'NONE', *, *, #224, .F. ) ;
#92 = AXIS2_PLACEMENT_3D ( 'NONE', #58, #229, #227 ) ;
#93 = EDGE_LOOP ( 'NONE', ( #23, #9, #72, #40 ) ) ;
#94 = PLANE ( 'NONE',  #92 ) ;
#95 = CARTESIAN_POINT ( 'NONE',  ( -25.50000000000000700, 38.00000000000000700, -1.500000000000000000 ) ) ;
#96 = VERTEX_POINT ( 'NONE', #140 ) ;
#97 = ORIENTED_EDGE ( 'NONE', *, *, #38, .T. ) ;
#98 = PERSON_AND_ORGANIZATION_ROLE ( 'creator' ) ;
#99 = APPROVAL_DATE_TIME ( #214, #220 ) ;
#100 = EDGE_LOOP ( 'NONE', ( #42, #28, #203, #139 ) ) ;
#101 = EDGE_CURVE ( 'NONE', #15, #174, #158, .T. ) ;
#102 = APPROVAL ( #232, 'UNSPECIFIED' ) ;
#103 = DIRECTION ( 'NONE',  ( 0.0000000000000000000, -1.000000000000000000, 0.0000000000000000000 ) ) ;
#104 =( NAMED_UNIT ( * ) SI_UNIT ( $, .STERADIAN. ) SOLID_ANGLE_UNIT ( ) );
#105 = COORDINATED_UNIVERSAL_TIME_OFFSET ( 5, 0, .BEHIND. ) ;
#106 = EDGE_LOOP ( 'NONE', ( #107, #156, #54, #88 ) ) ;
#107 = ORIENTED_EDGE ( 'NONE', *, *, #31, .T. ) ;
#108 = LINE ( 'NONE', #127, #78 ) ;
#109 = AXIS2_PLACEMENT_3D ( 'NONE', #208, #35, #152 ) ;
#110 = CARTESIAN_POINT ( 'NONE',  ( -25.50000000000000700, 38.00000000000000700, -1.500000000000000000 ) ) ;
#111 = CARTESIAN_POINT ( 'NONE',  ( -25.50000000000000000, -37.99999999999999300, -1.500000000000000000 ) ) ;
#112 = LOCAL_TIME ( 14, 14, 18.00000000000000000, #87 ) ;
#113 = CC_DESIGN_APPROVAL ( #102, ( #85 ) ) ;
#114 = CALENDAR_DATE ( 2017, 10, 4 ) ;
#115 = CARTESIAN_POINT ( 'NONE',  ( -25.50000000000000000, -37.99999999999999300, 1.500000000000000000 ) ) ;
#116 = AXIS2_PLACEMENT_3D ( 'NONE', #194, #103, #151 ) ;
#117 = VECTOR ( 'NONE', #207, 1000.000000000000000 ) ;
#118 = CC_DESIGN_PERSON_AND_ORGANIZATION_ASSIGNMENT ( #70, #217, ( #200 ) ) ;
#119 = PERSON_AND_ORGANIZATION ( #122, #77 ) ;
#120 = DATE_AND_TIME ( #215, #112 ) ;
#121 = APPLICATION_PROTOCOL_DEFINITION ( 'international standard', 'config_control_design', 1994, #231 ) ;
#122 = PERSON ( 'UNSPECIFIED', 'UNSPECIFIED', 'UNSPECIFIED', ('UNSPECIFIED'), ('UNSPECIFIED'), ('UNSPECIFIED') ) ;
#123 = EDGE_CURVE ( 'NONE', #174, #53, #24, .T. ) ;
#124 = CARTESIAN_POINT ( 'NONE',  ( 25.49999999999999600, -37.99999999999999300, 1.500000000000000000 ) ) ;
#125 = CARTESIAN_POINT ( 'NONE',  ( 25.49999999999998600, 38.00000000000000700, 1.500000000000000000 ) ) ;
#126 = LINE ( 'NONE', #47, #130 ) ;
#127 = CARTESIAN_POINT ( 'NONE',  ( -25.50000000000000000, -37.99999999999999300, 1.500000000000000000 ) ) ;
#128 = CALENDAR_DATE ( 2017, 10, 4 ) ;
#129 = PLANE ( 'NONE',  #109 ) ;
#130 = VECTOR ( 'NONE', #235, 1000.000000000000000 ) ;
#131 = CC_DESIGN_PERSON_AND_ORGANIZATION_ASSIGNMENT ( #12, #98, ( #85 ) ) ;
#132 = COORDINATED_UNIVERSAL_TIME_OFFSET ( 5, 0, .BEHIND. ) ;
#133 = SECURITY_CLASSIFICATION_LEVEL ( 'unclassified' ) ;
#134 = DIRECTION ( 'NONE',  ( -1.369518533665900300E-016, 1.000000000000000000, -0.0000000000000000000 ) ) ;
#135 = DATE_AND_TIME ( #11, #76 ) ;
#136 = APPROVAL_PERSON_ORGANIZATION ( #119, #220, #199 ) ;
#137 = VECTOR ( 'NONE', #210, 1000.000000000000000 ) ;
#138 = EDGE_CURVE ( 'NONE', #96, #53, #108, .T. ) ;
#139 = ORIENTED_EDGE ( 'NONE', *, *, #79, .T. ) ;
#140 = CARTESIAN_POINT ( 'NONE',  ( -25.50000000000000000, -37.99999999999999300, 1.500000000000000000 ) ) ;
#141 = CC_DESIGN_PERSON_AND_ORGANIZATION_ASSIGNMENT ( #183, #172, ( #85 ) ) ;
#142 = CC_DESIGN_APPROVAL ( #60, ( #27 ) ) ;
#143 = ORIENTED_EDGE ( 'NONE', *, *, #31, .F. ) ;
#144 = FACE_OUTER_BOUND ( 'NONE', #62, .T. ) ;
#145 = CC_DESIGN_DATE_AND_TIME_ASSIGNMENT ( #18, #149, ( #27 ) ) ;
#146 = DIRECTION ( 'NONE',  ( 1.000000000000000000, 0.0000000000000000000, 0.0000000000000000000 ) ) ;
#147 = APPLICATION_PROTOCOL_DEFINITION ( 'international standard', 'config_control_design', 1994, #213 ) ;
#148 = PERSON_AND_ORGANIZATION ( #122, #77 ) ;
#149 = DATE_TIME_ROLE ( 'creation_date' ) ;
#150 = CARTESIAN_POINT ( 'NONE',  ( 25.49999999999999600, -37.99999999999999300, 1.500000000000000000 ) ) ;
#151 = DIRECTION ( 'NONE',  ( 0.0000000000000000000, -0.0000000000000000000, -1.000000000000000000 ) ) ;
#152 = DIRECTION ( 'NONE',  ( 0.0000000000000000000, -0.0000000000000000000, 1.000000000000000000 ) ) ;
#153 = DIRECTION ( 'NONE',  ( 1.369518533665900300E-016, -1.000000000000000000, 0.0000000000000000000 ) ) ;
#154 = VERTEX_POINT ( 'NONE', #124 ) ;
#155 = ORIENTED_EDGE ( 'NONE', *, *, #234, .T. ) ;
#156 = ORIENTED_EDGE ( 'NONE', *, *, #234, .F. ) ;
#157 = EDGE_CURVE ( 'NONE', #196, #96, #83, .T. ) ;
#158 = LINE ( 'NONE', #20, #191 ) ;
#159 = VECTOR ( 'NONE', #134, 1000.000000000000000 ) ;
#160 = APPROVAL_PERSON_ORGANIZATION ( #206, #102, #22 ) ;
#161 = APPROVAL_DATE_TIME ( #218, #60 ) ;
#162 = COORDINATED_UNIVERSAL_TIME_OFFSET ( 5, 0, .BEHIND. ) ;
#163 = PLANE ( 'NONE',  #116 ) ;
#164 = ADVANCED_FACE ( 'NONE', ( #233 ), #129, .F. ) ;
#165 = ADVANCED_FACE ( 'NONE', ( #2 ), #171, .F. ) ;
#166 = LOCAL_TIME ( 14, 14, 18.00000000000000000, #8 ) ;
#167 = LINE ( 'NONE', #150, #137 ) ;
#168 = ORIENTED_EDGE ( 'NONE', *, *, #13, .T. ) ;
#169 = AXIS2_PLACEMENT_3D ( 'NONE', #33, #50, #175 ) ;
#170 = PRODUCT ( 'Web Model 31432_46675', 'Web Model 31432_46675', '', ( #30 ) ) ;
#171 = PLANE ( 'NONE',  #5 ) ;
#172 = PERSON_AND_ORGANIZATION_ROLE ( 'design_supplier' ) ;
#173 = PLANE ( 'NONE',  #64 ) ;
#174 = VERTEX_POINT ( 'NONE', #95 ) ;
#175 = DIRECTION ( 'NONE',  ( 1.000000000000000000, 0.0000000000000000000, 0.0000000000000000000 ) ) ;
#176 = LINE ( 'NONE', #125, #68 ) ;
#177 =( NAMED_UNIT ( * ) PLANE_ANGLE_UNIT ( ) SI_UNIT ( $, .RADIAN. ) );
#178 = ORIENTED_EDGE ( 'NONE', *, *, #13, .F. ) ;
#179 = DIRECTION ( 'NONE',  ( 1.000000000000000000, 1.369518533665900100E-016, -0.0000000000000000000 ) ) ;
#180 = DIRECTION ( 'NONE',  ( -0.0000000000000000000, -0.0000000000000000000, -1.000000000000000000 ) ) ;
#181 = UNCERTAINTY_MEASURE_WITH_UNIT (LENGTH_MEASURE( 1.000000000000000100E-005 ), #59, 'distance_accuracy_value', 'NONE');
#182 = VERTEX_POINT ( 'NONE', #75 ) ;
#183 = PERSON_AND_ORGANIZATION ( #122, #77 ) ;
#184 = CARTESIAN_POINT ( 'NONE',  ( 0.0000000000000000000, 0.0000000000000000000, -1.500000000000000000 ) ) ;
#185 = CARTESIAN_POINT ( 'NONE',  ( -25.50000000000000700, 38.00000000000000700, 1.500000000000000000 ) ) ;
#186 = ADVANCED_FACE ( 'NONE', ( #221 ), #173, .F. ) ;
#187 = DIRECTION ( 'NONE',  ( -0.0000000000000000000, -0.0000000000000000000, -1.000000000000000000 ) ) ;
#188 = LINE ( 'NONE', #111, #34 ) ;
#189 = ADVANCED_FACE ( 'NONE', ( #86 ), #94, .F. ) ;
#190 = ADVANCED_FACE ( 'NONE', ( #144 ), #230, .T. ) ;
#191 = VECTOR ( 'NONE', #29, 1000.000000000000000 ) ;
#192 = VECTOR ( 'NONE', #153, 1000.000000000000000 ) ;
#193 = CC_DESIGN_SECURITY_CLASSIFICATION ( #200, ( #85 ) ) ;
#194 = CARTESIAN_POINT ( 'NONE',  ( -25.50000000000000700, 38.00000000000000700, 1.500000000000000000 ) ) ;
#195 = ADVANCED_FACE ( 'NONE', ( #17 ), #163, .F. ) ;
#196 = VERTEX_POINT ( 'NONE', #67 ) ;
#197 = DESIGN_CONTEXT ( 'detailed design', #231, 'design' ) ;
#198 = LOCAL_TIME ( 14, 14, 18.00000000000000000, #105 ) ;
#199 = APPROVAL_ROLE ( '' ) ;
#200 = SECURITY_CLASSIFICATION ( '', '', #133 ) ;
#201 = PERSON_AND_ORGANIZATION ( #122, #77 ) ;
#202 = LINE ( 'NONE', #4, #1 ) ;
#203 = ORIENTED_EDGE ( 'NONE', *, *, #157, .F. ) ;
#204 = DIRECTION ( 'NONE',  ( 1.000000000000000000, 0.0000000000000000000, 0.0000000000000000000 ) ) ;
#205 = LINE ( 'NONE', #115, #74 ) ;
#206 = PERSON_AND_ORGANIZATION ( #122, #77 ) ;
#207 = DIRECTION ( 'NONE',  ( 1.369518533665900300E-016, -1.000000000000000000, 0.0000000000000000000 ) ) ;
#208 = CARTESIAN_POINT ( 'NONE',  ( -25.50000000000000000, -37.99999999999999300, 1.500000000000000000 ) ) ;
#209 = SHAPE_DEFINITION_REPRESENTATION ( #223, #216 ) ;
#210 = DIRECTION ( 'NONE',  ( -0.0000000000000000000, -0.0000000000000000000, -1.000000000000000000 ) ) ;
#211 = DIRECTION ( 'NONE',  ( -0.0000000000000000000, -0.0000000000000000000, -1.000000000000000000 ) ) ;
#212 =( GEOMETRIC_REPRESENTATION_CONTEXT ( 3 ) GLOBAL_UNCERTAINTY_ASSIGNED_CONTEXT ( ( #181 ) ) GLOBAL_UNIT_ASSIGNED_CONTEXT ( ( #59, #177, #104 ) ) REPRESENTATION_CONTEXT ( 'NONE', 'WORKASPACE' ) );
#213 = APPLICATION_CONTEXT ( 'configuration controlled 3d designs of mechanical parts and assemblies' ) ;
#214 = DATE_AND_TIME ( #128, #166 ) ;
#215 = CALENDAR_DATE ( 2017, 10, 4 ) ;
#216 = ADVANCED_BREP_SHAPE_REPRESENTATION ( 'Web Model 31432_46675', ( #225, #169 ), #212 ) ;
#217 = PERSON_AND_ORGANIZATION_ROLE ( 'classification_officer' ) ;
#218 = DATE_AND_TIME ( #80, #198 ) ;
#219 = EDGE_LOOP ( 'NONE', ( #46, #39, #178, #155 ) ) ;
#220 = APPROVAL ( #66, 'UNSPECIFIED' ) ;
#221 = FACE_OUTER_BOUND ( 'NONE', #100, .T. ) ;
#222 = ORIENTED_EDGE ( 'NONE', *, *, #157, .T. ) ;
#223 = PRODUCT_DEFINITION_SHAPE ( 'NONE', 'NONE',  #27 ) ;
#224 = EDGE_CURVE ( 'NONE', #53, #182, #188, .T. ) ;
#225 = MANIFOLD_SOLID_BREP ( 'Boss-Extrude1', #41 ) ;
#226 = CC_DESIGN_APPROVAL ( #220, ( #200 ) ) ;
#227 = DIRECTION ( 'NONE',  ( 1.369518533665900100E-016, -1.000000000000000000, 0.0000000000000000000 ) ) ;
#228 = ORIENTED_EDGE ( 'NONE', *, *, #123, .F. ) ;
#229 = DIRECTION ( 'NONE',  ( -1.000000000000000000, -1.369518533665900100E-016, 0.0000000000000000000 ) ) ;
#230 = PLANE ( 'NONE',  #52 ) ;
#231 = APPLICATION_CONTEXT ( 'configuration controlled 3d designs of mechanical parts and assemblies' ) ;
#232 = APPROVAL_STATUS ( 'not_yet_approved' ) ;
#233 = FACE_OUTER_BOUND ( 'NONE', #93, .T. ) ;
#234 = EDGE_CURVE ( 'NONE', #65, #15, #176, .T. ) ;
#235 = DIRECTION ( 'NONE',  ( -1.369518533665900300E-016, 1.000000000000000000, -0.0000000000000000000 ) ) ;
#236 = PERSON_AND_ORGANIZATION_ROLE ( 'creator' ) ;
#237 = CC_DESIGN_DATE_AND_TIME_ASSIGNMENT ( #120, #61, ( #200 ) ) ;
ENDSEC;
END-ISO-10303-21;
