ISO-10303-21;
HEADER;
FILE_DESCRIPTION (( 'STEP AP203' ),
    '1' );
FILE_NAME ('Web Model 17170.step',
    '2021-06-17T18:09:36',
    ( '' ),
    ( '' ),
    'SwSTEP 2.0',
    'SolidWorks 2018',
    '' );
FILE_SCHEMA (( 'CONFIG_CONTROL_DESIGN' ));
ENDSEC;

DATA;
#1 = DIRECTION ( 'NONE',  ( 0.000000000000000000, 0.000000000000000000, 1.000000000000000000 ) ) ;
#2 = CARTESIAN_POINT ( 'NONE',  ( 2.460629921259842590, 3.013402556957070180E-16, 0.1574803149606299191 ) ) ;
#3 = APPLICATION_CONTEXT ( 'configuration controlled 3d designs of mechanical parts and assemblies' ) ;
#4 = LINE ( 'NONE', #26, #177 ) ;
#5 = APPLICATION_PROTOCOL_DEFINITION ( 'international standard', 'config_control_design', 1994, #59 ) ;
#6 = APPROVAL_ROLE ( '' ) ;
#7 = PERSON_AND_ORGANIZATION_ROLE ( 'classification_officer' ) ;
#8 = EDGE_CURVE ( 'NONE', #51, #45, #116, .T. ) ;
#9 = EDGE_LOOP ( 'NONE', ( #170, #90, #175, #32 ) ) ;
#10 = CC_DESIGN_PERSON_AND_ORGANIZATION_ASSIGNMENT ( #80, #159, ( #106 ) ) ;
#11 = COORDINATED_UNIVERSAL_TIME_OFFSET ( 5, 0, .BEHIND. ) ;
#12 = PRODUCT_DEFINITION ( 'UNKNOWN', '', #176, #38 ) ;
#13 = CLOSED_SHELL ( 'NONE', ( #73, #18, #127, #29 ) ) ;
#14 = DIRECTION ( 'NONE',  ( 0.000000000000000000, 0.000000000000000000, 1.000000000000000000 ) ) ;
#15 = SHAPE_DEFINITION_REPRESENTATION ( #65, #57 ) ;
#16 = CARTESIAN_POINT ( 'NONE',  ( -2.460629921259842590, 0.000000000000000000, 0.1574803149606299191 ) ) ;
#17 =( NAMED_UNIT ( * ) PLANE_ANGLE_UNIT ( ) SI_UNIT ( $, .RADIAN. ) );
#18 = ADVANCED_FACE ( 'NONE', ( #44 ), #149, .T. ) ;
#19 = CARTESIAN_POINT ( 'NONE',  ( 0.000000000000000000, 0.000000000000000000, 0.000000000000000000 ) ) ;
#20 = PERSON_AND_ORGANIZATION_ROLE ( 'creator' ) ;
#21 = APPROVAL_STATUS ( 'not_yet_approved' ) ;
#22 = APPROVAL_PERSON_ORGANIZATION ( #126, #111, #161 ) ;
#23 = CC_DESIGN_PERSON_AND_ORGANIZATION_ASSIGNMENT ( #91, #20, ( #12 ) ) ;
#24 = ORIENTED_EDGE ( 'NONE', *, *, #66, .F. ) ;
#25 = DATE_AND_TIME ( #101, #109 ) ;
#26 = CARTESIAN_POINT ( 'NONE',  ( -2.460629921259842590, 0.000000000000000000, 0.1574803149606299191 ) ) ;
#27 = CC_DESIGN_DATE_AND_TIME_ASSIGNMENT ( #25, #78, ( #133 ) ) ;
#28 = CARTESIAN_POINT ( 'NONE',  ( 0.000000000000000000, 0.000000000000000000, 0.1574803149606299191 ) ) ;
#29 = ADVANCED_FACE ( 'NONE', ( #77 ), #99, .F. ) ;
#30 = DIRECTION ( 'NONE',  ( 1.000000000000000000, 0.000000000000000000, 0.000000000000000000 ) ) ;
#31 = APPROVAL_ROLE ( '' ) ;
#32 = ORIENTED_EDGE ( 'NONE', *, *, #96, .T. ) ;
#33 = APPROVAL_STATUS ( 'not_yet_approved' ) ;
#34 = DIRECTION ( 'NONE',  ( 0.000000000000000000, 0.000000000000000000, 1.000000000000000000 ) ) ;
#35 = CC_DESIGN_APPROVAL ( #47, ( #133 ) ) ;
#36 = PERSON_AND_ORGANIZATION ( #158, #117 ) ;
#37 = DATE_AND_TIME ( #152, #138 ) ;
#38 = DESIGN_CONTEXT ( 'detailed design', #3, 'design' ) ;
#39 = AXIS2_PLACEMENT_3D ( 'NONE', #114, #14, #70 ) ;
#40 =( LENGTH_UNIT ( ) NAMED_UNIT ( * ) SI_UNIT ( $, .METRE. ) );
#41 = DIRECTION ( 'NONE',  ( -0.000000000000000000, -0.000000000000000000, -1.000000000000000000 ) ) ;
#42 = DIRECTION ( 'NONE',  ( 0.000000000000000000, 0.000000000000000000, 1.000000000000000000 ) ) ;
#43 = AXIS2_PLACEMENT_3D ( 'NONE', #28, #85, #100 ) ;
#44 = FACE_OUTER_BOUND ( 'NONE', #9, .T. ) ;
#45 = VERTEX_POINT ( 'NONE', #132 ) ;
#46 = APPROVAL_DATE_TIME ( #62, #47 ) ;
#47 = APPROVAL ( #21, 'UNSPECIFIED' ) ;
#48 = UNCERTAINTY_MEASURE_WITH_UNIT (LENGTH_MEASURE( 1.000000000000000082E-05 ), #104, 'distance_accuracy_value', 'NONE');
#49 = FACE_OUTER_BOUND ( 'NONE', #156, .T. ) ;
#50 = PERSON_AND_ORGANIZATION ( #158, #117 ) ;
#51 = VERTEX_POINT ( 'NONE', #16 ) ;
#52 = EDGE_CURVE ( 'NONE', #68, #53, #178, .T. ) ;
#53 = VERTEX_POINT ( 'NONE', #84 ) ;
#54 = PERSON_AND_ORGANIZATION ( #158, #117 ) ;
#55 = ORIENTED_EDGE ( 'NONE', *, *, #162, .T. ) ;
#56 = CARTESIAN_POINT ( 'NONE',  ( 0.000000000000000000, 0.000000000000000000, 0.000000000000000000 ) ) ;
#57 = ADVANCED_BREP_SHAPE_REPRESENTATION ( 'Web Model 17170', ( #112, #125 ), #74 ) ;
#58 = CARTESIAN_POINT ( 'NONE',  ( 0.000000000000000000, 0.000000000000000000, 0.1574803149606299191 ) ) ;
#59 = APPLICATION_CONTEXT ( 'configuration controlled 3d designs of mechanical parts and assemblies' ) ;
#60 = APPROVAL ( #33, 'UNSPECIFIED' ) ;
#61 = ORIENTED_EDGE ( 'NONE', *, *, #139, .F. ) ;
#62 = DATE_AND_TIME ( #64, #129 ) ;
#63 = PRODUCT_RELATED_PRODUCT_CATEGORY ( 'detail', '', ( #106 ) ) ;
#64 = CALENDAR_DATE ( 2021, 17, 6 ) ;
#65 = PRODUCT_DEFINITION_SHAPE ( 'NONE', 'NONE',  #12 ) ;
#66 = EDGE_CURVE ( 'NONE', #45, #51, #102, .T. ) ;
#67 = ORIENTED_EDGE ( 'NONE', *, *, #52, .T. ) ;
#68 = VERTEX_POINT ( 'NONE', #89 ) ;
#69 = APPROVAL_DATE_TIME ( #37, #111 ) ;
#70 = DIRECTION ( 'NONE',  ( 1.000000000000000000, 0.000000000000000000, -0.000000000000000000 ) ) ;
#71 = AXIS2_PLACEMENT_3D ( 'NONE', #154, #41, #103 ) ;
#72 = CARTESIAN_POINT ( 'NONE',  ( 0.000000000000000000, 0.000000000000000000, 0.1574803149606299191 ) ) ;
#73 = ADVANCED_FACE ( 'NONE', ( #49 ), #134, .T. ) ;
#74 =( GEOMETRIC_REPRESENTATION_CONTEXT ( 3 ) GLOBAL_UNCERTAINTY_ASSIGNED_CONTEXT ( ( #48 ) ) GLOBAL_UNIT_ASSIGNED_CONTEXT ( ( #104, #17, #171 ) ) REPRESENTATION_CONTEXT ( 'NONE', 'WORKASPACE' ) );
#75 = CARTESIAN_POINT ( 'NONE',  ( 0.000000000000000000, 0.000000000000000000, 0.000000000000000000 ) ) ;
#76 = PERSON_AND_ORGANIZATION ( #158, #117 ) ;
#77 = FACE_OUTER_BOUND ( 'NONE', #140, .T. ) ;
#78 = DATE_TIME_ROLE ( 'classification_date' ) ;
#79 = AXIS2_PLACEMENT_3D ( 'NONE', #56, #157, #168 ) ;
#80 = PERSON_AND_ORGANIZATION ( #158, #117 ) ;
#81 = FACE_OUTER_BOUND ( 'NONE', #128, .T. ) ;
#82 = CC_DESIGN_APPROVAL ( #60, ( #176 ) ) ;
#83 = LOCAL_TIME ( 14, 9, 36.00000000000000000, #97 ) ;
#84 = CARTESIAN_POINT ( 'NONE',  ( -2.460629921259842590, 0.000000000000000000, 0.000000000000000000 ) ) ;
#85 = DIRECTION ( 'NONE',  ( 0.000000000000000000, 0.000000000000000000, 1.000000000000000000 ) ) ;
#86 = CIRCLE ( 'NONE', #88, 2.460629921259842590 ) ;
#87 = DIRECTION ( 'NONE',  ( -0.000000000000000000, -0.000000000000000000, -1.000000000000000000 ) ) ;
#88 = AXIS2_PLACEMENT_3D ( 'NONE', #19, #119, #30 ) ;
#89 = CARTESIAN_POINT ( 'NONE',  ( 2.460629921259842590, 3.013402556957070180E-16, 0.000000000000000000 ) ) ;
#90 = ORIENTED_EDGE ( 'NONE', *, *, #8, .F. ) ;
#91 = PERSON_AND_ORGANIZATION ( #158, #117 ) ;
#92 = DIRECTION ( 'NONE',  ( 1.000000000000000000, 0.000000000000000000, 0.000000000000000000 ) ) ;
#93 = MECHANICAL_CONTEXT ( 'NONE', #59, 'mechanical' ) ;
#94 = LINE ( 'NONE', #2, #155 ) ;
#95 = ORIENTED_EDGE ( 'NONE', *, *, #96, .F. ) ;
#96 = EDGE_CURVE ( 'NONE', #53, #68, #86, .T. ) ;
#97 = COORDINATED_UNIVERSAL_TIME_OFFSET ( 5, 0, .BEHIND. ) ;
#98 = ORIENTED_EDGE ( 'NONE', *, *, #66, .T. ) ;
#99 = PLANE ( 'NONE',  #39 ) ;
#100 = DIRECTION ( 'NONE',  ( 1.000000000000000000, 0.000000000000000000, -0.000000000000000000 ) ) ;
#101 = CALENDAR_DATE ( 2021, 17, 6 ) ;
#102 = CIRCLE ( 'NONE', #105, 2.460629921259842590 ) ;
#103 = DIRECTION ( 'NONE',  ( -1.000000000000000000, 0.000000000000000000, 0.000000000000000000 ) ) ;
#104 =( CONVERSION_BASED_UNIT ( 'INCH', #130 ) LENGTH_UNIT ( ) NAMED_UNIT ( #136 ) );
#105 = AXIS2_PLACEMENT_3D ( 'NONE', #72, #42, #118 ) ;
#106 = PRODUCT ( 'Web Model 17170', 'Web Model 17170', '', ( #93 ) ) ;
#107 = APPLICATION_PROTOCOL_DEFINITION ( 'international standard', 'config_control_design', 1994, #3 ) ;
#108 = SECURITY_CLASSIFICATION_LEVEL ( 'unclassified' ) ;
#109 = LOCAL_TIME ( 14, 9, 36.00000000000000000, #123 ) ;
#110 = PERSON_AND_ORGANIZATION ( #158, #117 ) ;
#111 = APPROVAL ( #122, 'UNSPECIFIED' ) ;
#112 = MANIFOLD_SOLID_BREP ( 'Boss-Extrude1', #13 ) ;
#113 = CC_DESIGN_APPROVAL ( #111, ( #12 ) ) ;
#114 = CARTESIAN_POINT ( 'NONE',  ( 0.000000000000000000, 0.000000000000000000, 0.000000000000000000 ) ) ;
#115 = CALENDAR_DATE ( 2021, 17, 6 ) ;
#116 = CIRCLE ( 'NONE', #169, 2.460629921259842590 ) ;
#117 = ORGANIZATION ( 'UNSPECIFIED', 'UNSPECIFIED', '' ) ;
#118 = DIRECTION ( 'NONE',  ( 1.000000000000000000, 0.000000000000000000, 0.000000000000000000 ) ) ;
#119 = DIRECTION ( 'NONE',  ( 0.000000000000000000, 0.000000000000000000, 1.000000000000000000 ) ) ;
#120 = LOCAL_TIME ( 14, 9, 36.00000000000000000, #164 ) ;
#121 = CC_DESIGN_PERSON_AND_ORGANIZATION_ASSIGNMENT ( #76, #148, ( #176 ) ) ;
#122 = APPROVAL_STATUS ( 'not_yet_approved' ) ;
#123 = COORDINATED_UNIVERSAL_TIME_OFFSET ( 5, 0, .BEHIND. ) ;
#124 = DATE_TIME_ROLE ( 'creation_date' ) ;
#125 = AXIS2_PLACEMENT_3D ( 'NONE', #75, #34, #92 ) ;
#126 = PERSON_AND_ORGANIZATION ( #158, #117 ) ;
#127 = ADVANCED_FACE ( 'NONE', ( #81 ), #137, .T. ) ;
#128 = EDGE_LOOP ( 'NONE', ( #143, #98 ) ) ;
#129 = LOCAL_TIME ( 14, 9, 36.00000000000000000, #165 ) ;
#130 = LENGTH_MEASURE_WITH_UNIT ( LENGTH_MEASURE( 0.02539999999999999897 ), #40 );
#131 = DIRECTION ( 'NONE',  ( -0.000000000000000000, -0.000000000000000000, -1.000000000000000000 ) ) ;
#132 = CARTESIAN_POINT ( 'NONE',  ( 2.460629921259842590, 3.013402556957070180E-16, 0.1574803149606299191 ) ) ;
#133 = SECURITY_CLASSIFICATION ( '', '', #108 ) ;
#134 = CYLINDRICAL_SURFACE ( 'NONE', #174, 2.460629921259842590 ) ;
#135 = DIRECTION ( 'NONE',  ( -1.000000000000000000, 0.000000000000000000, 0.000000000000000000 ) ) ;
#136 = DIMENSIONAL_EXPONENTS ( 1.000000000000000000, 0.000000000000000000, 0.000000000000000000, 0.000000000000000000, 0.000000000000000000, 0.000000000000000000, 0.000000000000000000 ) ;
#137 = PLANE ( 'NONE',  #43 ) ;
#138 = LOCAL_TIME ( 14, 9, 36.00000000000000000, #11 ) ;
#139 = EDGE_CURVE ( 'NONE', #51, #53, #4, .T. ) ;
#140 = EDGE_LOOP ( 'NONE', ( #95, #144 ) ) ;
#141 = DATE_AND_TIME ( #163, #120 ) ;
#142 = CC_DESIGN_PERSON_AND_ORGANIZATION_ASSIGNMENT ( #36, #172, ( #176 ) ) ;
#143 = ORIENTED_EDGE ( 'NONE', *, *, #8, .T. ) ;
#144 = ORIENTED_EDGE ( 'NONE', *, *, #52, .F. ) ;
#145 = APPROVAL_PERSON_ORGANIZATION ( #54, #60, #31 ) ;
#146 = DIRECTION ( 'NONE',  ( -0.000000000000000000, -0.000000000000000000, -1.000000000000000000 ) ) ;
#147 = CC_DESIGN_PERSON_AND_ORGANIZATION_ASSIGNMENT ( #50, #7, ( #133 ) ) ;
#148 = PERSON_AND_ORGANIZATION_ROLE ( 'creator' ) ;
#149 = CYLINDRICAL_SURFACE ( 'NONE', #71, 2.460629921259842590 ) ;
#150 = CC_DESIGN_DATE_AND_TIME_ASSIGNMENT ( #160, #124, ( #12 ) ) ;
#151 = CC_DESIGN_SECURITY_CLASSIFICATION ( #133, ( #176 ) ) ;
#152 = CALENDAR_DATE ( 2021, 17, 6 ) ;
#153 = APPROVAL_PERSON_ORGANIZATION ( #110, #47, #6 ) ;
#154 = CARTESIAN_POINT ( 'NONE',  ( 0.000000000000000000, 0.000000000000000000, 0.1574803149606299191 ) ) ;
#155 = VECTOR ( 'NONE', #131, 39.37007874015748143 ) ;
#156 = EDGE_LOOP ( 'NONE', ( #24, #55, #67, #61 ) ) ;
#157 = DIRECTION ( 'NONE',  ( 0.000000000000000000, 0.000000000000000000, 1.000000000000000000 ) ) ;
#158 = PERSON ( 'UNSPECIFIED', 'UNSPECIFIED', 'UNSPECIFIED', ('UNSPECIFIED'), ('UNSPECIFIED'), ('UNSPECIFIED') ) ;
#159 = PERSON_AND_ORGANIZATION_ROLE ( 'design_owner' ) ;
#160 = DATE_AND_TIME ( #115, #83 ) ;
#161 = APPROVAL_ROLE ( '' ) ;
#162 = EDGE_CURVE ( 'NONE', #45, #68, #94, .T. ) ;
#163 = CALENDAR_DATE ( 2021, 17, 6 ) ;
#164 = COORDINATED_UNIVERSAL_TIME_OFFSET ( 5, 0, .BEHIND. ) ;
#165 = COORDINATED_UNIVERSAL_TIME_OFFSET ( 5, 0, .BEHIND. ) ;
#166 = DIRECTION ( 'NONE',  ( 1.000000000000000000, 0.000000000000000000, 0.000000000000000000 ) ) ;
#167 = CARTESIAN_POINT ( 'NONE',  ( 0.000000000000000000, 0.000000000000000000, 0.1574803149606299191 ) ) ;
#168 = DIRECTION ( 'NONE',  ( 1.000000000000000000, 0.000000000000000000, 0.000000000000000000 ) ) ;
#169 = AXIS2_PLACEMENT_3D ( 'NONE', #167, #1, #166 ) ;
#170 = ORIENTED_EDGE ( 'NONE', *, *, #162, .F. ) ;
#171 =( NAMED_UNIT ( * ) SI_UNIT ( $, .STERADIAN. ) SOLID_ANGLE_UNIT ( ) );
#172 = PERSON_AND_ORGANIZATION_ROLE ( 'design_supplier' ) ;
#173 = APPROVAL_DATE_TIME ( #141, #60 ) ;
#174 = AXIS2_PLACEMENT_3D ( 'NONE', #58, #146, #135 ) ;
#175 = ORIENTED_EDGE ( 'NONE', *, *, #139, .T. ) ;
#176 = PRODUCT_DEFINITION_FORMATION_WITH_SPECIFIED_SOURCE ( 'ANY', '', #106, .NOT_KNOWN. ) ;
#177 = VECTOR ( 'NONE', #87, 39.37007874015748143 ) ;
#178 = CIRCLE ( 'NONE', #79, 2.460629921259842590 ) ;
ENDSEC;
END-ISO-10303-21;
