ISO-10303-21;
HEADER;
FILE_DESCRIPTION (( 'STEP AP203' ),
    '1' );
FILE_NAME ('25023-E0W.STEP',
    '2012-09-28T16:17:45',
    ( 'Admin' ),
    ( 'Thorlabs, Inc.' ),
    'SwSTEP 2.0',
    'SolidWorks 2011',
    '' );
FILE_SCHEMA (( 'CONFIG_CONTROL_DESIGN' ));
ENDSEC;

DATA;
#1 =( LENGTH_UNIT ( ) NAMED_UNIT ( * ) SI_UNIT ( .MILLI., .METRE. ) );
#2 = DIRECTION ( 'NONE',  ( -0.0000000000000000000, 3.061616997868382600E-016, -1.000000000000000000 ) ) ;
#3 = DIRECTION ( 'NONE',  ( 0.0000000000000000000, 1.000000000000000000, 2.731847993664262700E-016 ) ) ;
#4 = CARTESIAN_POINT ( 'NONE',  ( 0.0000000000000000000, 12.69999999999999900, 9.438255012321224800 ) ) ;
#5 = FACE_OUTER_BOUND ( 'NONE', #195, .T. ) ;
#6 = PRODUCT_DEFINITION_SHAPE ( 'NONE', 'NONE',  #68 ) ;
#7 = PRODUCT_RELATED_PRODUCT_CATEGORY ( 'detail', '', ( #109 ) ) ;
#8 = CC_DESIGN_SECURITY_CLASSIFICATION ( #78, ( #46 ) ) ;
#9 = CC_DESIGN_APPROVAL ( #17, ( #78 ) ) ;
#10 = APPROVAL_DATE_TIME ( #11, #17 ) ;
#11 = DATE_AND_TIME ( #12, #13 ) ;
#12 = CALENDAR_DATE ( 2012, 28, 9 ) ;
#13 = LOCAL_TIME ( 12, 17, 45.00000000000000000, #14 ) ;
#14 = COORDINATED_UNIVERSAL_TIME_OFFSET ( 5, 0, .BEHIND. ) ;
#15 = APPROVAL_PERSON_ORGANIZATION ( #19, #17, #16 ) ;
#16 = APPROVAL_ROLE ( '' ) ;
#17 = APPROVAL ( #18, 'UNSPECIFIED' ) ;
#18 = APPROVAL_STATUS ( 'not_yet_approved' ) ;
#19 = PERSON_AND_ORGANIZATION ( #108, #106 ) ;
#20 = CC_DESIGN_DATE_AND_TIME_ASSIGNMENT ( #22, #21, ( #78 ) ) ;
#21 = DATE_TIME_ROLE ( 'classification_date' ) ;
#22 = DATE_AND_TIME ( #72, #73 ) ;
#23 = CARTESIAN_POINT ( 'NONE',  ( 0.0000000000000000000, 12.70000000000000100, -1.499999999999996200 ) ) ;
#24 = SPHERICAL_SURFACE ( 'NONE', #293, 13.80000000000000600 ) ;
#25 = AXIS2_PLACEMENT_3D ( 'NONE', #71, #70, #69 ) ;
#26 = CARTESIAN_POINT ( 'NONE',  ( 0.0000000000000000000, 1.072509038427183100E-014, 15.30000000000000800 ) ) ;
#27 = FACE_OUTER_BOUND ( 'NONE', #164, .T. ) ;
#28 = DIRECTION ( 'NONE',  ( 0.0000000000000000000, 1.000000000000000000, 3.073328992872296900E-016 ) ) ;
#29 = DIRECTION ( 'NONE',  ( -0.0000000000000000000, 3.061616997868382600E-016, -1.000000000000000000 ) ) ;
#30 = CYLINDRICAL_SURFACE ( 'NONE', #93, 12.69999999999999900 ) ;
#31 = CARTESIAN_POINT ( 'NONE',  ( 0.0000000000000000000, 1.699443474555834900E-015, -1.500000000000000000 ) ) ;
#32 = CIRCLE ( 'NONE', #112, 12.69999999999999800 ) ;
#33 = AXIS2_PLACEMENT_3D ( 'NONE', #96, #36, #35 ) ;
#34 = APPLICATION_CONTEXT ( 'configuration controlled 3d designs of mechanical parts and assemblies' ) ;
#35 = DIRECTION ( 'NONE',  ( 1.000000000000000000, 0.0000000000000000000, 0.0000000000000000000 ) ) ;
#36 = DIRECTION ( 'NONE',  ( 0.0000000000000000000, 0.0000000000000000000, 1.000000000000000000 ) ) ;
#37 = ADVANCED_BREP_SHAPE_REPRESENTATION ( '25023-E0W', ( #181, #33 ), #298 ) ;
#38 = CALENDAR_DATE ( 2012, 28, 9 ) ;
#39 = LOCAL_TIME ( 12, 17, 45.00000000000000000, #40 ) ;
#40 = COORDINATED_UNIVERSAL_TIME_OFFSET ( 5, 0, .BEHIND. ) ;
#41 = APPROVAL_PERSON_ORGANIZATION ( #45, #43, #42 ) ;
#42 = APPROVAL_ROLE ( '' ) ;
#43 = APPROVAL ( #44, 'UNSPECIFIED' ) ;
#44 = APPROVAL_STATUS ( 'not_yet_approved' ) ;
#45 = PERSON_AND_ORGANIZATION ( #108, #106 ) ;
#46 = PRODUCT_DEFINITION_FORMATION_WITH_SPECIFIED_SOURCE ( 'ANY', '', #109, .NOT_KNOWN. ) ;
#47 = SHAPE_DEFINITION_REPRESENTATION ( #6, #37 ) ;
#48 = CC_DESIGN_DATE_AND_TIME_ASSIGNMENT ( #50, #49, ( #68 ) ) ;
#49 = DATE_TIME_ROLE ( 'creation_date' ) ;
#50 = DATE_AND_TIME ( #51, #52 ) ;
#51 = CALENDAR_DATE ( 2012, 28, 9 ) ;
#52 = LOCAL_TIME ( 12, 17, 45.00000000000000000, #53 ) ;
#53 = COORDINATED_UNIVERSAL_TIME_OFFSET ( 5, 0, .BEHIND. ) ;
#54 = CC_DESIGN_PERSON_AND_ORGANIZATION_ASSIGNMENT ( #56, #55, ( #68 ) ) ;
#55 = PERSON_AND_ORGANIZATION_ROLE ( 'creator' ) ;
#56 = PERSON_AND_ORGANIZATION ( #108, #106 ) ;
#57 = CC_DESIGN_APPROVAL ( #65, ( #68 ) ) ;
#58 = APPROVAL_DATE_TIME ( #59, #65 ) ;
#59 = DATE_AND_TIME ( #60, #61 ) ;
#60 = CALENDAR_DATE ( 2012, 28, 9 ) ;
#61 = LOCAL_TIME ( 12, 17, 45.00000000000000000, #62 ) ;
#62 = COORDINATED_UNIVERSAL_TIME_OFFSET ( 5, 0, .BEHIND. ) ;
#63 = APPROVAL_PERSON_ORGANIZATION ( #67, #65, #64 ) ;
#64 = APPROVAL_ROLE ( '' ) ;
#65 = APPROVAL ( #66, 'UNSPECIFIED' ) ;
#66 = APPROVAL_STATUS ( 'not_yet_approved' ) ;
#67 = PERSON_AND_ORGANIZATION ( #108, #106 ) ;
#68 = PRODUCT_DEFINITION ( 'UNKNOWN', '', #46, #101 ) ;
#69 = DIRECTION ( 'NONE',  ( 0.0000000000000000000, 1.000000000000000000, 2.514091994169284200E-016 ) ) ;
#70 = DIRECTION ( 'NONE',  ( 1.000000000000000000, 0.0000000000000000000, -0.0000000000000000000 ) ) ;
#71 = CARTESIAN_POINT ( 'NONE',  ( 0.0000000000000000000, 1.072509038427183100E-014, 15.30000000000000800 ) ) ;
#72 = CALENDAR_DATE ( 2012, 28, 9 ) ;
#73 = LOCAL_TIME ( 12, 17, 45.00000000000000000, #74 ) ;
#74 = COORDINATED_UNIVERSAL_TIME_OFFSET ( 5, 0, .BEHIND. ) ;
#75 = CC_DESIGN_PERSON_AND_ORGANIZATION_ASSIGNMENT ( #77, #76, ( #78 ) ) ;
#76 = PERSON_AND_ORGANIZATION_ROLE ( 'classification_officer' ) ;
#77 = PERSON_AND_ORGANIZATION ( #108, #106 ) ;
#78 = SECURITY_CLASSIFICATION ( '', '', #79 ) ;
#79 = SECURITY_CLASSIFICATION_LEVEL ( 'unclassified' ) ;
#80 = CC_DESIGN_PERSON_AND_ORGANIZATION_ASSIGNMENT ( #82, #81, ( #46 ) ) ;
#81 = PERSON_AND_ORGANIZATION_ROLE ( 'design_supplier' ) ;
#82 = PERSON_AND_ORGANIZATION ( #108, #106 ) ;
#83 = CC_DESIGN_PERSON_AND_ORGANIZATION_ASSIGNMENT ( #85, #84, ( #46 ) ) ;
#84 = PERSON_AND_ORGANIZATION_ROLE ( 'creator' ) ;
#85 = PERSON_AND_ORGANIZATION ( #108, #106 ) ;
#86 = CC_DESIGN_APPROVAL ( #43, ( #46 ) ) ;
#87 = APPROVAL_DATE_TIME ( #88, #43 ) ;
#88 = DATE_AND_TIME ( #38, #39 ) ;
#89 = VECTOR ( 'NONE', #294, 1000.000000000000100 ) ;
#90 = LINE ( 'NONE', #4, #89 ) ;
#91 = CARTESIAN_POINT ( 'NONE',  ( 1.537982313792428900E-015, -12.55857864376267900, 9.579676368558494900 ) ) ;
#92 = FACE_OUTER_BOUND ( 'NONE', #155, .T. ) ;
#93 = AXIS2_PLACEMENT_3D ( 'NONE', #31, #99, #100 ) ;
#94 = SPHERICAL_SURFACE ( 'NONE', #25, 13.80000000000000600 ) ;
#95 = FACE_OUTER_BOUND ( 'NONE', #177, .T. ) ;
#96 = CARTESIAN_POINT ( 'NONE',  ( 0.0000000000000000000, 0.0000000000000000000, 0.0000000000000000000 ) ) ;
#97 = DIRECTION ( 'NONE',  ( 0.0000000000000000000, 1.000000000000000000, 2.514091994169284200E-016 ) ) ;
#98 = DIRECTION ( 'NONE',  ( 1.000000000000000000, 0.0000000000000000000, -0.0000000000000000000 ) ) ;
#99 = DIRECTION ( 'NONE',  ( -0.0000000000000000000, 3.061616997868382600E-016, -1.000000000000000000 ) ) ;
#100 = DIRECTION ( 'NONE',  ( 0.0000000000000000000, 1.000000000000000000, 3.073328992872296400E-016 ) ) ;
#101 = DESIGN_CONTEXT ( 'detailed design', #103, 'design' ) ;
#102 = APPLICATION_PROTOCOL_DEFINITION ( 'international standard', 'config_control_design', 1994, #103 ) ;
#103 = APPLICATION_CONTEXT ( 'configuration controlled 3d designs of mechanical parts and assemblies' ) ;
#104 = CC_DESIGN_PERSON_AND_ORGANIZATION_ASSIGNMENT ( #105, #107, ( #109 ) ) ;
#105 = PERSON_AND_ORGANIZATION ( #108, #106 ) ;
#106 = ORGANIZATION ( 'UNSPECIFIED', 'UNSPECIFIED', '' ) ;
#107 = PERSON_AND_ORGANIZATION_ROLE ( 'design_owner' ) ;
#108 = PERSON ( 'UNSPECIFIED', 'UNSPECIFIED', 'UNSPECIFIED', ('UNSPECIFIED'), ('UNSPECIFIED'), ('UNSPECIFIED') ) ;
#109 = PRODUCT ( '25023-E0W', '25023-E0W', '', ( #110 ) ) ;
#110 = MECHANICAL_CONTEXT ( 'NONE', #34, 'mechanical' ) ;
#111 = APPLICATION_PROTOCOL_DEFINITION ( 'international standard', 'config_control_design', 1994, #34 ) ;
#112 = AXIS2_PLACEMENT_3D ( 'NONE', #297, #29, #28 ) ;
#113 = EDGE_CURVE ( 'NONE', #145, #150, #213, .T. ) ;
#114 = ORIENTED_EDGE ( 'NONE', *, *, #137, .T. ) ;
#115 = VERTEX_POINT ( 'NONE', #193 ) ;
#116 = DIRECTION ( 'NONE',  ( 0.0000000000000000000, 1.000000000000000000, 3.061616997868382600E-016 ) ) ;
#117 = ADVANCED_FACE ( 'NONE', ( #189 ), #199, .T. ) ;
#118 = VERTEX_POINT ( 'NONE', #190 ) ;
#119 = ORIENTED_EDGE ( 'NONE', *, *, #169, .T. ) ;
#120 = VERTEX_POINT ( 'NONE', #192 ) ;
#121 = CLOSED_SHELL ( 'NONE', ( #117, #133, #126, #265, #209, #171, #226, #152, #170 ) ) ;
#122 = ORIENTED_EDGE ( 'NONE', *, *, #163, .T. ) ;
#123 = EDGE_CURVE ( 'NONE', #172, #120, #216, .T. ) ;
#124 = EDGE_CURVE ( 'NONE', #120, #115, #271, .T. ) ;
#125 = ORIENTED_EDGE ( 'NONE', *, *, #176, .F. ) ;
#126 = ADVANCED_FACE ( 'NONE', ( #217 ), #197, .T. ) ;
#127 = ORIENTED_EDGE ( 'NONE', *, *, #175, .T. ) ;
#128 = ORIENTED_EDGE ( 'NONE', *, *, #169, .F. ) ;
#129 = EDGE_CURVE ( 'NONE', #149, #120, #262, .T. ) ;
#130 = ORIENTED_EDGE ( 'NONE', *, *, #129, .T. ) ;
#131 = ORIENTED_EDGE ( 'NONE', *, *, #137, .F. ) ;
#132 = EDGE_CURVE ( 'NONE', #145, #118, #230, .T. ) ;
#133 = ADVANCED_FACE ( 'NONE', ( #228 ), #267, .T. ) ;
#134 = EDGE_CURVE ( 'NONE', #118, #115, #202, .T. ) ;
#135 = ORIENTED_EDGE ( 'NONE', *, *, #134, .F. ) ;
#136 = ORIENTED_EDGE ( 'NONE', *, *, #132, .F. ) ;
#137 = EDGE_CURVE ( 'NONE', #150, #115, #257, .T. ) ;
#138 = ORIENTED_EDGE ( 'NONE', *, *, #113, .T. ) ;
#139 = ORIENTED_EDGE ( 'NONE', *, *, #132, .T. ) ;
#140 = ORIENTED_EDGE ( 'NONE', *, *, #134, .T. ) ;
#141 = ORIENTED_EDGE ( 'NONE', *, *, #208, .T. ) ;
#142 = ORIENTED_EDGE ( 'NONE', *, *, #113, .F. ) ;
#143 = ORIENTED_EDGE ( 'NONE', *, *, #153, .F. ) ;
#144 = ORIENTED_EDGE ( 'NONE', *, *, #123, .F. ) ;
#145 = VERTEX_POINT ( 'NONE', #254 ) ;
#146 = ORIENTED_EDGE ( 'NONE', *, *, #175, .F. ) ;
#147 = ORIENTED_EDGE ( 'NONE', *, *, #162, .F. ) ;
#148 = VERTEX_POINT ( 'NONE', #233 ) ;
#149 = VERTEX_POINT ( 'NONE', #256 ) ;
#150 = VERTEX_POINT ( 'NONE', #255 ) ;
#151 = ORIENTED_EDGE ( 'NONE', *, *, #208, .F. ) ;
#152 = ADVANCED_FACE ( 'NONE', ( #204 ), #249, .T. ) ;
#153 = EDGE_CURVE ( 'NONE', #148, #172, #252, .T. ) ;
#154 = EDGE_CURVE ( 'NONE', #172, #148, #244, .T. ) ;
#155 = EDGE_LOOP ( 'NONE', ( #144, #168, #127, #128 ) ) ;
#156 = VERTEX_POINT ( 'NONE', #243 ) ;
#157 = ORIENTED_EDGE ( 'NONE', *, *, #163, .F. ) ;
#158 = ORIENTED_EDGE ( 'NONE', *, *, #159, .T. ) ;
#159 = EDGE_CURVE ( 'NONE', #172, #156, #242, .T. ) ;
#160 = ORIENTED_EDGE ( 'NONE', *, *, #124, .T. ) ;
#161 = ORIENTED_EDGE ( 'NONE', *, *, #129, .F. ) ;
#162 = EDGE_CURVE ( 'NONE', #148, #156, #187, .T. ) ;
#163 = EDGE_CURVE ( 'NONE', #118, #145, #275, .T. ) ;
#164 = EDGE_LOOP ( 'NONE', ( #264, #143, #210 ) ) ;
#165 = EDGE_LOOP ( 'NONE', ( #142, #157, #140, #141 ) ) ;
#166 = ORIENTED_EDGE ( 'NONE', *, *, #153, .T. ) ;
#167 = ORIENTED_EDGE ( 'NONE', *, *, #123, .T. ) ;
#168 = ORIENTED_EDGE ( 'NONE', *, *, #154, .T. ) ;
#169 = EDGE_CURVE ( 'NONE', #120, #149, #277, .T. ) ;
#170 = ADVANCED_FACE ( 'NONE', ( #274 ), #279, .T. ) ;
#171 = ADVANCED_FACE ( 'NONE', ( #92 ), #289, .T. ) ;
#172 = VERTEX_POINT ( 'NONE', #91 ) ;
#173 = EDGE_LOOP ( 'NONE', ( #166, #167, #161, #146 ) ) ;
#174 = EDGE_LOOP ( 'NONE', ( #122, #139 ) ) ;
#175 = EDGE_CURVE ( 'NONE', #148, #149, #90, .T. ) ;
#176 = EDGE_CURVE ( 'NONE', #149, #150, #292, .T. ) ;
#177 = EDGE_LOOP ( 'NONE', ( #200, #158, #147 ) ) ;
#178 = EDGE_LOOP ( 'NONE', ( #136, #138, #114, #135 ) ) ;
#179 = EDGE_LOOP ( 'NONE', ( #130, #160, #131, #125 ) ) ;
#180 = ORIENTED_EDGE ( 'NONE', *, *, #176, .T. ) ;
#181 = MANIFOLD_SOLID_BREP ( '25023-001-1-solid1', #121 ) ;
#182 = ORIENTED_EDGE ( 'NONE', *, *, #124, .F. ) ;
#183 = DIRECTION ( 'NONE',  ( 0.0000000000000000000, 0.0000000000000000000, 1.000000000000000000 ) ) ;
#184 = DIRECTION ( 'NONE',  ( -1.000000000000000000, 0.0000000000000000000, 0.0000000000000000000 ) ) ;
#185 = CARTESIAN_POINT ( 'NONE',  ( 0.0000000000000000000, 1.072509038427183100E-014, 15.30000000000000800 ) ) ;
#186 = AXIS2_PLACEMENT_3D ( 'NONE', #185, #184, #183 ) ;
#187 = CIRCLE ( 'NONE', #186, 13.80000000000000600 ) ;
#188 = DIRECTION ( 'NONE',  ( -1.224646799147353200E-016, 1.000000000000000000, 0.0000000000000000000 ) ) ;
#189 = FACE_OUTER_BOUND ( 'NONE', #178, .T. ) ;
#190 = CARTESIAN_POINT ( 'NONE',  ( 0.0000000000000000000, -12.55857864376268700, -1.500000000000005600 ) ) ;
#191 = AXIS2_PLACEMENT_3D ( 'NONE', #214, #266, #196 ) ;
#192 = CARTESIAN_POINT ( 'NONE',  ( 1.555301434917138600E-015, -12.70000000000000300, 9.438255012321217700 ) ) ;
#193 = CARTESIAN_POINT ( 'NONE',  ( 1.555301434917138400E-015, -12.69999999999999600, -1.358578643762695900 ) ) ;
#194 = DIRECTION ( 'NONE',  ( 8.659560562354940300E-017, 0.7071067811865479100, 0.7071067811865472400 ) ) ;
#195 = EDGE_LOOP ( 'NONE', ( #182, #119, #180, #151 ) ) ;
#196 = DIRECTION ( 'NONE',  ( 0.0000000000000000000, -1.000000000000000000, -3.107937555406665100E-016 ) ) ;
#197 = CONICAL_SURFACE ( 'NONE', #198, 12.70000000000000100, 0.7853981633975587500 ) ;
#198 = AXIS2_PLACEMENT_3D ( 'NONE', #219, #258, #263 ) ;
#199 = CONICAL_SURFACE ( 'NONE', #191, 12.55857864376268800, 0.7853981633974490600 ) ;
#200 = ORIENTED_EDGE ( 'NONE', *, *, #154, .F. ) ;
#201 = VECTOR ( 'NONE', #232, 999.9999999999998900 ) ;
#202 = LINE ( 'NONE', #207, #201 ) ;
#203 = AXIS2_PLACEMENT_3D ( 'NONE', #221, #259, #253 ) ;
#204 = FACE_OUTER_BOUND ( 'NONE', #165, .T. ) ;
#205 = DIRECTION ( 'NONE',  ( 0.0000000000000000000, 1.000000000000000000, 3.073328992872296400E-016 ) ) ;
#206 = AXIS2_PLACEMENT_3D ( 'NONE', #231, #227, #205 ) ;
#207 = CARTESIAN_POINT ( 'NONE',  ( 0.0000000000000000000, -12.55857864376268700, -1.500000000000005600 ) ) ;
#208 = EDGE_CURVE ( 'NONE', #115, #150, #32, .T. ) ;
#209 = ADVANCED_FACE ( 'NONE', ( #27 ), #24, .F. ) ;
#210 = ORIENTED_EDGE ( 'NONE', *, *, #162, .T. ) ;
#211 = VECTOR ( 'NONE', #194, 999.9999999999998900 ) ;
#212 = CARTESIAN_POINT ( 'NONE',  ( 1.537982313792428500E-015, 12.55857864376269000, -1.499999999999997600 ) ) ;
#213 = LINE ( 'NONE', #212, #211 ) ;
#214 = CARTESIAN_POINT ( 'NONE',  ( 0.0000000000000000000, 1.699443474555835200E-015, -1.500000000000001600 ) ) ;
#215 = CARTESIAN_POINT ( 'NONE',  ( 1.555301434917138600E-015, -12.70000000000000300, 9.438255012321217700 ) ) ;
#216 = LINE ( 'NONE', #215, #273 ) ;
#217 = FACE_OUTER_BOUND ( 'NONE', #173, .T. ) ;
#218 = AXIS2_PLACEMENT_3D ( 'NONE', #260, #220, #229 ) ;
#219 = CARTESIAN_POINT ( 'NONE',  ( 0.0000000000000000000, -1.649431272718333700E-015, 9.438255012321221200 ) ) ;
#220 = DIRECTION ( 'NONE',  ( -0.0000000000000000000, 3.061616997868382600E-016, -1.000000000000000000 ) ) ;
#221 = CARTESIAN_POINT ( 'NONE',  ( 0.0000000000000000000, 1.656145671744060700E-015, -1.358578643762692100 ) ) ;
#222 = AXIS2_PLACEMENT_3D ( 'NONE', #239, #238, #237 ) ;
#223 = DIRECTION ( 'NONE',  ( 0.0000000000000000000, 1.000000000000000000, 3.107937555406665100E-016 ) ) ;
#224 = DIRECTION ( 'NONE',  ( -0.0000000000000000000, 3.061616997868382600E-016, -1.000000000000000000 ) ) ;
#225 = CARTESIAN_POINT ( 'NONE',  ( 0.0000000000000000000, 1.699443474555835200E-015, -1.500000000000001600 ) ) ;
#226 = ADVANCED_FACE ( 'NONE', ( #5 ), #30, .T. ) ;
#227 = DIRECTION ( 'NONE',  ( -0.0000000000000000000, 3.061616997868382600E-016, -1.000000000000000000 ) ) ;
#228 = FACE_OUTER_BOUND ( 'NONE', #179, .T. ) ;
#229 = DIRECTION ( 'NONE',  ( 0.0000000000000000000, 1.000000000000000000, 2.731847993664262700E-016 ) ) ;
#230 = CIRCLE ( 'NONE', #261, 12.55857864376268800 ) ;
#231 = CARTESIAN_POINT ( 'NONE',  ( 0.0000000000000000000, 1.699443474555834900E-015, -1.500000000000000000 ) ) ;
#232 = DIRECTION ( 'NONE',  ( 0.0000000000000000000, -0.7071067811865483500, 0.7071067811865468000 ) ) ;
#233 = CARTESIAN_POINT ( 'NONE',  ( 0.0000000000000000000, 12.55857864376269000, 9.579676368558503800 ) ) ;
#234 = DIRECTION ( 'NONE',  ( 1.000000000000000000, 1.224646799147353200E-016, 3.749399456654643500E-032 ) ) ;
#235 = CARTESIAN_POINT ( 'NONE',  ( 0.0000000000000000000, 1.072509038427183100E-014, 15.30000000000000800 ) ) ;
#236 = AXIS2_PLACEMENT_3D ( 'NONE', #235, #234, #188 ) ;
#237 = DIRECTION ( 'NONE',  ( 0.0000000000000000000, 1.000000000000000000, 2.762611160361479200E-016 ) ) ;
#238 = DIRECTION ( 'NONE',  ( -0.0000000000000000000, 3.061616997868382600E-016, -1.000000000000000000 ) ) ;
#239 = CARTESIAN_POINT ( 'NONE',  ( 0.0000000000000000000, -1.692729075530098900E-015, 9.579676368558500200 ) ) ;
#240 = DIRECTION ( 'NONE',  ( 0.0000000000000000000, 1.000000000000000000, 2.762611160361479200E-016 ) ) ;
#241 = AXIS2_PLACEMENT_3D ( 'NONE', #251, #250, #240 ) ;
#242 = CIRCLE ( 'NONE', #236, 13.80000000000000600 ) ;
#243 = CARTESIAN_POINT ( 'NONE',  ( 0.0000000000000000000, 1.579512813274187600E-014, 1.500000000000001300 ) ) ;
#244 = CIRCLE ( 'NONE', #222, 12.55857864376269200 ) ;
#245 = DIRECTION ( 'NONE',  ( 0.0000000000000000000, -1.000000000000000000, -3.107937555406665100E-016 ) ) ;
#246 = DIRECTION ( 'NONE',  ( 0.0000000000000000000, -3.061616997868382600E-016, 1.000000000000000000 ) ) ;
#247 = CARTESIAN_POINT ( 'NONE',  ( 0.0000000000000000000, 1.699443474555835200E-015, -1.500000000000001600 ) ) ;
#248 = AXIS2_PLACEMENT_3D ( 'NONE', #247, #246, #245 ) ;
#249 = CONICAL_SURFACE ( 'NONE', #248, 12.55857864376268800, 0.7853981633974490600 ) ;
#250 = DIRECTION ( 'NONE',  ( -0.0000000000000000000, 3.061616997868382600E-016, -1.000000000000000000 ) ) ;
#251 = CARTESIAN_POINT ( 'NONE',  ( 0.0000000000000000000, -1.692729075530098900E-015, 9.579676368558500200 ) ) ;
#252 = CIRCLE ( 'NONE', #241, 12.55857864376269200 ) ;
#253 = DIRECTION ( 'NONE',  ( 0.0000000000000000000, 1.000000000000000000, 3.073328992872296900E-016 ) ) ;
#254 = CARTESIAN_POINT ( 'NONE',  ( 1.546641874354783400E-015, 12.55857864376269000, -1.499999999999997600 ) ) ;
#255 = CARTESIAN_POINT ( 'NONE',  ( 0.0000000000000000000, 12.69999999999999900, -1.358578643762688100 ) ) ;
#256 = CARTESIAN_POINT ( 'NONE',  ( 0.0000000000000000000, 12.69999999999999900, 9.438255012321224800 ) ) ;
#257 = CIRCLE ( 'NONE', #203, 12.69999999999999800 ) ;
#258 = DIRECTION ( 'NONE',  ( -0.0000000000000000000, 3.061616997868382600E-016, -1.000000000000000000 ) ) ;
#259 = DIRECTION ( 'NONE',  ( -0.0000000000000000000, 3.061616997868382600E-016, -1.000000000000000000 ) ) ;
#260 = CARTESIAN_POINT ( 'NONE',  ( 0.0000000000000000000, -1.649431272718333700E-015, 9.438255012321221200 ) ) ;
#261 = AXIS2_PLACEMENT_3D ( 'NONE', #225, #224, #223 ) ;
#262 = CIRCLE ( 'NONE', #218, 12.70000000000000100 ) ;
#263 = DIRECTION ( 'NONE',  ( 0.0000000000000000000, 1.000000000000000000, 2.731847993664262700E-016 ) ) ;
#264 = ORIENTED_EDGE ( 'NONE', *, *, #159, .F. ) ;
#265 = ADVANCED_FACE ( 'NONE', ( #95 ), #94, .F. ) ;
#266 = DIRECTION ( 'NONE',  ( 0.0000000000000000000, -3.061616997868382600E-016, 1.000000000000000000 ) ) ;
#267 = CYLINDRICAL_SURFACE ( 'NONE', #206, 12.69999999999999900 ) ;
#268 = DIRECTION ( 'NONE',  ( -0.0000000000000000000, 3.061616997868382600E-016, -1.000000000000000000 ) ) ;
#269 = VECTOR ( 'NONE', #268, 1000.000000000000000 ) ;
#270 = CARTESIAN_POINT ( 'NONE',  ( 1.555301434917138400E-015, -12.69999999999999800, -1.500000000000004000 ) ) ;
#271 = LINE ( 'NONE', #270, #269 ) ;
#272 = DIRECTION ( 'NONE',  ( 8.659560562355888100E-017, -0.7071067811866254000, -0.7071067811864696400 ) ) ;
#273 = VECTOR ( 'NONE', #272, 1000.000000000000100 ) ;
#274 = FACE_OUTER_BOUND ( 'NONE', #174, .T. ) ;
#275 = CIRCLE ( 'NONE', #282, 12.55857864376268800 ) ;
#276 = CARTESIAN_POINT ( 'NONE',  ( 0.0000000000000000000, -1.649431272718333700E-015, 9.438255012321221200 ) ) ;
#277 = CIRCLE ( 'NONE', #287, 12.70000000000000100 ) ;
#278 = CARTESIAN_POINT ( 'NONE',  ( 0.0000000000000000000, 1.699443474555835000E-015, -1.500000000000000700 ) ) ;
#279 = PLANE ( 'NONE',  #284 ) ;
#280 = DIRECTION ( 'NONE',  ( 0.0000000000000000000, 1.000000000000000000, 3.107937555406665100E-016 ) ) ;
#281 = DIRECTION ( 'NONE',  ( -0.0000000000000000000, 3.061616997868382600E-016, -1.000000000000000000 ) ) ;
#282 = AXIS2_PLACEMENT_3D ( 'NONE', #288, #281, #280 ) ;
#283 = DIRECTION ( 'NONE',  ( -0.0000000000000000000, 3.061616997868382600E-016, -1.000000000000000000 ) ) ;
#284 = AXIS2_PLACEMENT_3D ( 'NONE', #278, #283, #116 ) ;
#285 = DIRECTION ( 'NONE',  ( 0.0000000000000000000, 1.000000000000000000, 2.731847993664262700E-016 ) ) ;
#286 = DIRECTION ( 'NONE',  ( -0.0000000000000000000, 3.061616997868382600E-016, -1.000000000000000000 ) ) ;
#287 = AXIS2_PLACEMENT_3D ( 'NONE', #276, #286, #285 ) ;
#288 = CARTESIAN_POINT ( 'NONE',  ( 0.0000000000000000000, 1.699443474555835200E-015, -1.500000000000001600 ) ) ;
#289 = CONICAL_SURFACE ( 'NONE', #296, 12.70000000000000100, 0.7853981633975587500 ) ;
#290 = DIRECTION ( 'NONE',  ( -0.0000000000000000000, 3.061616997868382600E-016, -1.000000000000000000 ) ) ;
#291 = VECTOR ( 'NONE', #290, 1000.000000000000000 ) ;
#292 = LINE ( 'NONE', #23, #291 ) ;
#293 = AXIS2_PLACEMENT_3D ( 'NONE', #26, #98, #97 ) ;
#294 = DIRECTION ( 'NONE',  ( 0.0000000000000000000, 0.7071067811866258400, -0.7071067811864691900 ) ) ;
#295 = CARTESIAN_POINT ( 'NONE',  ( 0.0000000000000000000, -1.649431272718333700E-015, 9.438255012321221200 ) ) ;
#296 = AXIS2_PLACEMENT_3D ( 'NONE', #295, #2, #3 ) ;
#297 = CARTESIAN_POINT ( 'NONE',  ( 0.0000000000000000000, 1.656145671744060700E-015, -1.358578643762692100 ) ) ;
#298 =( GEOMETRIC_REPRESENTATION_CONTEXT ( 3 ) GLOBAL_UNCERTAINTY_ASSIGNED_CONTEXT ( ( #299 ) ) GLOBAL_UNIT_ASSIGNED_CONTEXT ( ( #1, #301, #300 ) ) REPRESENTATION_CONTEXT ( 'NONE', 'WORKASPACE' ) );
#299 = UNCERTAINTY_MEASURE_WITH_UNIT (LENGTH_MEASURE( 1.000000000000000100E-005 ), #1, 'distance_accuracy_value', 'NONE');
#300 =( NAMED_UNIT ( * ) SI_UNIT ( $, .STERADIAN. ) SOLID_ANGLE_UNIT ( ) );
#301 =( NAMED_UNIT ( * ) PLANE_ANGLE_UNIT ( ) SI_UNIT ( $, .RADIAN. ) );
ENDSEC;
END-ISO-10303-21;
