ISO-10303-21;
HEADER;
FILE_DESCRIPTION (( 'STEP AP203' ),
    '1' );
FILE_NAME ('Web Model 84457_13341.step',
    '2020-11-04T13:23:07',
    ( '' ),
    ( '' ),
    'SwSTEP 2.0',
    'SolidWorks 2018',
    '' );
FILE_SCHEMA (( 'CONFIG_CONTROL_DESIGN' ));
ENDSEC;

DATA;
#1 = ORIENTED_EDGE ( 'NONE', *, *, #115, .T. ) ;
#2 = CALENDAR_DATE ( 2020, 4, 11 ) ;
#3 = CC_DESIGN_APPROVAL ( #174, ( #86 ) ) ;
#4 = APPROVAL_PERSON_ORGANIZATION ( #76, #122, #38 ) ;
#5 = CARTESIAN_POINT ( 'NONE',  ( 0.0000000000000000000, 0.0000000000000000000, 4.000000000000000000 ) ) ;
#6 = DIRECTION ( 'NONE',  ( 1.000000000000000000, 0.0000000000000000000, -0.0000000000000000000 ) ) ;
#7 = DIRECTION ( 'NONE',  ( 0.0000000000000000000, 0.0000000000000000000, 1.000000000000000000 ) ) ;
#8 = COORDINATED_UNIVERSAL_TIME_OFFSET ( 5, 0, .BEHIND. ) ;
#9 =( LENGTH_UNIT ( ) NAMED_UNIT ( * ) SI_UNIT ( .MILLI., .METRE. ) );
#10 = AXIS2_PLACEMENT_3D ( 'NONE', #127, #155, #60 ) ;
#11 = VERTEX_POINT ( 'NONE', #170 ) ;
#12 = ORIENTED_EDGE ( 'NONE', *, *, #26, .F. ) ;
#13 = UNCERTAINTY_MEASURE_WITH_UNIT (LENGTH_MEASURE( 1.000000000000000082E-05 ), #9, 'distance_accuracy_value', 'NONE');
#14 = CC_DESIGN_PERSON_AND_ORGANIZATION_ASSIGNMENT ( #63, #36, ( #103 ) ) ;
#15 = PERSON_AND_ORGANIZATION ( #34, #152 ) ;
#16 = AXIS2_PLACEMENT_3D ( 'NONE', #59, #141, #95 ) ;
#17 = COORDINATED_UNIVERSAL_TIME_OFFSET ( 5, 0, .BEHIND. ) ;
#18 = CALENDAR_DATE ( 2020, 4, 11 ) ;
#19 = CARTESIAN_POINT ( 'NONE',  ( -20.00000000000000000, 0.0000000000000000000, 4.000000000000000000 ) ) ;
#20 = DIRECTION ( 'NONE',  ( 0.0000000000000000000, 0.0000000000000000000, 1.000000000000000000 ) ) ;
#21 = APPROVAL_STATUS ( 'not_yet_approved' ) ;
#22 = PRODUCT ( 'Web Model 84457_13341', 'Web Model 84457_13341', '', ( #146 ) ) ;
#23 = CC_DESIGN_APPROVAL ( #122, ( #103 ) ) ;
#24 = DATE_AND_TIME ( #172, #108 ) ;
#25 = SHAPE_DEFINITION_REPRESENTATION ( #107, #74 ) ;
#26 = EDGE_CURVE ( 'NONE', #126, #11, #32, .T. ) ;
#27 = CYLINDRICAL_SURFACE ( 'NONE', #55, 20.00000000000000000 ) ;
#28 = CLOSED_SHELL ( 'NONE', ( #42, #138, #151, #91 ) ) ;
#29 = CARTESIAN_POINT ( 'NONE',  ( 0.0000000000000000000, 0.0000000000000000000, 4.000000000000000000 ) ) ;
#30 = CC_DESIGN_APPROVAL ( #147, ( #137 ) ) ;
#31 = CALENDAR_DATE ( 2020, 4, 11 ) ;
#32 = CIRCLE ( 'NONE', #135, 20.00000000000000000 ) ;
#33 = PLANE ( 'NONE',  #150 ) ;
#34 = PERSON ( 'UNSPECIFIED', 'UNSPECIFIED', 'UNSPECIFIED', ('UNSPECIFIED'), ('UNSPECIFIED'), ('UNSPECIFIED') ) ;
#35 = ORIENTED_EDGE ( 'NONE', *, *, #68, .T. ) ;
#36 = PERSON_AND_ORGANIZATION_ROLE ( 'classification_officer' ) ;
#37 = EDGE_CURVE ( 'NONE', #133, #120, #148, .T. ) ;
#38 = APPROVAL_ROLE ( '' ) ;
#39 = PERSON_AND_ORGANIZATION ( #34, #152 ) ;
#40 = DATE_AND_TIME ( #31, #45 ) ;
#41 = AXIS2_PLACEMENT_3D ( 'NONE', #64, #20, #132 ) ;
#42 = ADVANCED_FACE ( 'NONE', ( #104 ), #70, .T. ) ;
#43 = EDGE_LOOP ( 'NONE', ( #48, #12, #35, #102 ) ) ;
#44 = CARTESIAN_POINT ( 'NONE',  ( 0.0000000000000000000, 0.0000000000000000000, 4.000000000000000000 ) ) ;
#45 = LOCAL_TIME ( 8, 23, 7.000000000000000000, #17 ) ;
#46 = DIRECTION ( 'NONE',  ( 0.0000000000000000000, 0.0000000000000000000, 1.000000000000000000 ) ) ;
#47 = CARTESIAN_POINT ( 'NONE',  ( 0.0000000000000000000, 0.0000000000000000000, 0.0000000000000000000 ) ) ;
#48 = ORIENTED_EDGE ( 'NONE', *, *, #156, .F. ) ;
#49 = APPROVAL_ROLE ( '' ) ;
#50 = APPROVAL_DATE_TIME ( #40, #122 ) ;
#51 = DIRECTION ( 'NONE',  ( -0.0000000000000000000, -0.0000000000000000000, -1.000000000000000000 ) ) ;
#52 = CC_DESIGN_PERSON_AND_ORGANIZATION_ASSIGNMENT ( #73, #99, ( #137 ) ) ;
#53 = PERSON_AND_ORGANIZATION ( #34, #152 ) ;
#54 =( GEOMETRIC_REPRESENTATION_CONTEXT ( 3 ) GLOBAL_UNCERTAINTY_ASSIGNED_CONTEXT ( ( #13 ) ) GLOBAL_UNIT_ASSIGNED_CONTEXT ( ( #9, #98, #85 ) ) REPRESENTATION_CONTEXT ( 'NONE', 'WORKASPACE' ) );
#55 = AXIS2_PLACEMENT_3D ( 'NONE', #29, #123, #125 ) ;
#56 = ORIENTED_EDGE ( 'NONE', *, *, #68, .F. ) ;
#57 = EDGE_LOOP ( 'NONE', ( #153, #131, #1, #56 ) ) ;
#58 = CC_DESIGN_DATE_AND_TIME_ASSIGNMENT ( #139, #129, ( #137 ) ) ;
#59 = CARTESIAN_POINT ( 'NONE',  ( 0.0000000000000000000, 0.0000000000000000000, 4.000000000000000000 ) ) ;
#60 = DIRECTION ( 'NONE',  ( 1.000000000000000000, 0.0000000000000000000, 0.0000000000000000000 ) ) ;
#61 = DATE_TIME_ROLE ( 'classification_date' ) ;
#62 = APPLICATION_CONTEXT ( 'configuration controlled 3d designs of mechanical parts and assemblies' ) ;
#63 = PERSON_AND_ORGANIZATION ( #34, #152 ) ;
#64 = CARTESIAN_POINT ( 'NONE',  ( 0.0000000000000000000, 0.0000000000000000000, 0.0000000000000000000 ) ) ;
#65 = ORIENTED_EDGE ( 'NONE', *, *, #117, .T. ) ;
#66 = LOCAL_TIME ( 8, 23, 7.000000000000000000, #8 ) ;
#67 = LINE ( 'NONE', #80, #100 ) ;
#68 = EDGE_CURVE ( 'NONE', #126, #133, #67, .T. ) ;
#69 = PERSON_AND_ORGANIZATION ( #34, #152 ) ;
#70 = CYLINDRICAL_SURFACE ( 'NONE', #16, 20.00000000000000000 ) ;
#71 = DIRECTION ( 'NONE',  ( -0.0000000000000000000, -0.0000000000000000000, -1.000000000000000000 ) ) ;
#72 = CARTESIAN_POINT ( 'NONE',  ( 20.00000000000000000, 2.449293598294706513E-15, 0.0000000000000000000 ) ) ;
#73 = PERSON_AND_ORGANIZATION ( #34, #152 ) ;
#74 = ADVANCED_BREP_SHAPE_REPRESENTATION ( 'Web Model 84457_13341', ( #119, #41 ), #54 ) ;
#75 = APPROVAL_DATE_TIME ( #24, #147 ) ;
#76 = PERSON_AND_ORGANIZATION ( #34, #152 ) ;
#77 = FACE_OUTER_BOUND ( 'NONE', #43, .T. ) ;
#78 = DIRECTION ( 'NONE',  ( 1.000000000000000000, 0.0000000000000000000, 0.0000000000000000000 ) ) ;
#79 = DIRECTION ( 'NONE',  ( 1.000000000000000000, 0.0000000000000000000, -0.0000000000000000000 ) ) ;
#80 = CARTESIAN_POINT ( 'NONE',  ( -20.00000000000000000, 0.0000000000000000000, 4.000000000000000000 ) ) ;
#81 = AXIS2_PLACEMENT_3D ( 'NONE', #44, #140, #78 ) ;
#82 = APPROVAL_DATE_TIME ( #116, #174 ) ;
#83 = DIRECTION ( 'NONE',  ( 0.0000000000000000000, 0.0000000000000000000, 1.000000000000000000 ) ) ;
#84 = FACE_OUTER_BOUND ( 'NONE', #109, .T. ) ;
#85 =( NAMED_UNIT ( * ) SI_UNIT ( $, .STERADIAN. ) SOLID_ANGLE_UNIT ( ) );
#86 = PRODUCT_DEFINITION_FORMATION_WITH_SPECIFIED_SOURCE ( 'ANY', '', #22, .NOT_KNOWN. ) ;
#87 = APPROVAL_ROLE ( '' ) ;
#88 = AXIS2_PLACEMENT_3D ( 'NONE', #5, #168, #6 ) ;
#89 = CALENDAR_DATE ( 2020, 4, 11 ) ;
#90 = CIRCLE ( 'NONE', #10, 20.00000000000000000 ) ;
#91 = ADVANCED_FACE ( 'NONE', ( #160 ), #33, .F. ) ;
#92 = COORDINATED_UNIVERSAL_TIME_OFFSET ( 5, 0, .BEHIND. ) ;
#93 = LOCAL_TIME ( 8, 23, 7.000000000000000000, #164 ) ;
#94 = CC_DESIGN_PERSON_AND_ORGANIZATION_ASSIGNMENT ( #15, #96, ( #86 ) ) ;
#95 = DIRECTION ( 'NONE',  ( -1.000000000000000000, 0.0000000000000000000, 0.0000000000000000000 ) ) ;
#96 = PERSON_AND_ORGANIZATION_ROLE ( 'design_supplier' ) ;
#97 = LINE ( 'NONE', #128, #118 ) ;
#98 =( NAMED_UNIT ( * ) PLANE_ANGLE_UNIT ( ) SI_UNIT ( $, .RADIAN. ) );
#99 = PERSON_AND_ORGANIZATION_ROLE ( 'creator' ) ;
#100 = VECTOR ( 'NONE', #71, 1000.000000000000000 ) ;
#101 = ORIENTED_EDGE ( 'NONE', *, *, #26, .T. ) ;
#102 = ORIENTED_EDGE ( 'NONE', *, *, #37, .T. ) ;
#103 = SECURITY_CLASSIFICATION ( '', '', #110 ) ;
#104 = FACE_OUTER_BOUND ( 'NONE', #57, .T. ) ;
#105 = CARTESIAN_POINT ( 'NONE',  ( -20.00000000000000000, 0.0000000000000000000, 0.0000000000000000000 ) ) ;
#106 = CARTESIAN_POINT ( 'NONE',  ( 0.0000000000000000000, 0.0000000000000000000, 4.000000000000000000 ) ) ;
#107 = PRODUCT_DEFINITION_SHAPE ( 'NONE', 'NONE',  #137 ) ;
#108 = LOCAL_TIME ( 8, 23, 7.000000000000000000, #92 ) ;
#109 = EDGE_LOOP ( 'NONE', ( #101, #65 ) ) ;
#110 = SECURITY_CLASSIFICATION_LEVEL ( 'unclassified' ) ;
#111 = APPROVAL_STATUS ( 'not_yet_approved' ) ;
#112 = CC_DESIGN_DATE_AND_TIME_ASSIGNMENT ( #144, #61, ( #103 ) ) ;
#113 = PERSON_AND_ORGANIZATION_ROLE ( 'creator' ) ;
#114 = LOCAL_TIME ( 8, 23, 7.000000000000000000, #157 ) ;
#115 = EDGE_CURVE ( 'NONE', #120, #133, #90, .T. ) ;
#116 = DATE_AND_TIME ( #89, #93 ) ;
#117 = EDGE_CURVE ( 'NONE', #11, #126, #175, .T. ) ;
#118 = VECTOR ( 'NONE', #51, 1000.000000000000000 ) ;
#120 = VERTEX_POINT ( 'NONE', #72 ) ;
#119 = MANIFOLD_SOLID_BREP ( 'Extrude1', #28 ) ;
#121 = DESIGN_CONTEXT ( 'detailed design', #62, 'design' ) ;
#122 = APPROVAL ( #159, 'UNSPECIFIED' ) ;
#123 = DIRECTION ( 'NONE',  ( -0.0000000000000000000, -0.0000000000000000000, -1.000000000000000000 ) ) ;
#124 = CARTESIAN_POINT ( 'NONE',  ( 0.0000000000000000000, 0.0000000000000000000, 0.0000000000000000000 ) ) ;
#125 = DIRECTION ( 'NONE',  ( -1.000000000000000000, 0.0000000000000000000, 0.0000000000000000000 ) ) ;
#126 = VERTEX_POINT ( 'NONE', #19 ) ;
#127 = CARTESIAN_POINT ( 'NONE',  ( 0.0000000000000000000, 0.0000000000000000000, 0.0000000000000000000 ) ) ;
#128 = CARTESIAN_POINT ( 'NONE',  ( 20.00000000000000000, 2.449293598294706513E-15, 4.000000000000000000 ) ) ;
#129 = DATE_TIME_ROLE ( 'creation_date' ) ;
#130 = AXIS2_PLACEMENT_3D ( 'NONE', #47, #7, #142 ) ;
#131 = ORIENTED_EDGE ( 'NONE', *, *, #156, .T. ) ;
#132 = DIRECTION ( 'NONE',  ( 1.000000000000000000, 0.0000000000000000000, 0.0000000000000000000 ) ) ;
#133 = VERTEX_POINT ( 'NONE', #105 ) ;
#134 = APPROVAL_PERSON_ORGANIZATION ( #69, #147, #87 ) ;
#135 = AXIS2_PLACEMENT_3D ( 'NONE', #106, #83, #166 ) ;
#136 = APPROVAL_PERSON_ORGANIZATION ( #39, #174, #49 ) ;
#137 = PRODUCT_DEFINITION ( 'UNKNOWN', '', #86, #121 ) ;
#138 = ADVANCED_FACE ( 'NONE', ( #77 ), #27, .T. ) ;
#139 = DATE_AND_TIME ( #18, #66 ) ;
#140 = DIRECTION ( 'NONE',  ( 0.0000000000000000000, 0.0000000000000000000, 1.000000000000000000 ) ) ;
#141 = DIRECTION ( 'NONE',  ( -0.0000000000000000000, -0.0000000000000000000, -1.000000000000000000 ) ) ;
#142 = DIRECTION ( 'NONE',  ( 1.000000000000000000, 0.0000000000000000000, 0.0000000000000000000 ) ) ;
#143 = APPLICATION_CONTEXT ( 'configuration controlled 3d designs of mechanical parts and assemblies' ) ;
#144 = DATE_AND_TIME ( #2, #114 ) ;
#145 = ORIENTED_EDGE ( 'NONE', *, *, #115, .F. ) ;
#146 = MECHANICAL_CONTEXT ( 'NONE', #143, 'mechanical' ) ;
#147 = APPROVAL ( #21, 'UNSPECIFIED' ) ;
#148 = CIRCLE ( 'NONE', #130, 20.00000000000000000 ) ;
#149 = PRODUCT_RELATED_PRODUCT_CATEGORY ( 'detail', '', ( #22 ) ) ;
#150 = AXIS2_PLACEMENT_3D ( 'NONE', #124, #46, #79 ) ;
#151 = ADVANCED_FACE ( 'NONE', ( #84 ), #167, .T. ) ;
#152 = ORGANIZATION ( 'UNSPECIFIED', 'UNSPECIFIED', '' ) ;
#153 = ORIENTED_EDGE ( 'NONE', *, *, #117, .F. ) ;
#154 = CC_DESIGN_PERSON_AND_ORGANIZATION_ASSIGNMENT ( #169, #158, ( #22 ) ) ;
#155 = DIRECTION ( 'NONE',  ( 0.0000000000000000000, 0.0000000000000000000, 1.000000000000000000 ) ) ;
#156 = EDGE_CURVE ( 'NONE', #11, #120, #97, .T. ) ;
#157 = COORDINATED_UNIVERSAL_TIME_OFFSET ( 5, 0, .BEHIND. ) ;
#158 = PERSON_AND_ORGANIZATION_ROLE ( 'design_owner' ) ;
#159 = APPROVAL_STATUS ( 'not_yet_approved' ) ;
#160 = FACE_OUTER_BOUND ( 'NONE', #165, .T. ) ;
#161 = ORIENTED_EDGE ( 'NONE', *, *, #37, .F. ) ;
#162 = CC_DESIGN_SECURITY_CLASSIFICATION ( #103, ( #86 ) ) ;
#163 = CC_DESIGN_PERSON_AND_ORGANIZATION_ASSIGNMENT ( #53, #113, ( #86 ) ) ;
#164 = COORDINATED_UNIVERSAL_TIME_OFFSET ( 5, 0, .BEHIND. ) ;
#165 = EDGE_LOOP ( 'NONE', ( #161, #145 ) ) ;
#166 = DIRECTION ( 'NONE',  ( 1.000000000000000000, 0.0000000000000000000, 0.0000000000000000000 ) ) ;
#167 = PLANE ( 'NONE',  #88 ) ;
#168 = DIRECTION ( 'NONE',  ( 0.0000000000000000000, 0.0000000000000000000, 1.000000000000000000 ) ) ;
#169 = PERSON_AND_ORGANIZATION ( #34, #152 ) ;
#170 = CARTESIAN_POINT ( 'NONE',  ( 20.00000000000000000, 2.449293598294706513E-15, 4.000000000000000000 ) ) ;
#171 = APPLICATION_PROTOCOL_DEFINITION ( 'international standard', 'config_control_design', 1994, #143 ) ;
#172 = CALENDAR_DATE ( 2020, 4, 11 ) ;
#173 = APPLICATION_PROTOCOL_DEFINITION ( 'international standard', 'config_control_design', 1994, #62 ) ;
#174 = APPROVAL ( #111, 'UNSPECIFIED' ) ;
#175 = CIRCLE ( 'NONE', #81, 20.00000000000000000 ) ;
ENDSEC;
END-ISO-10303-21;
