ISO-10303-21;
HEADER;
FILE_DESCRIPTION (( 'STEP AP203' ),
    '1' );
FILE_NAME ('Web Model 47193_13349.step',
    '2020-11-04T13:56:43',
    ( '' ),
    ( '' ),
    'SwSTEP 2.0',
    'SolidWorks 2018',
    '' );
FILE_SCHEMA (( 'CONFIG_CONTROL_DESIGN' ));
ENDSEC;

DATA;
#1 = LOCAL_TIME ( 8, 56, 43.00000000000000000, #34 ) ;
#2 = APPROVAL_PERSON_ORGANIZATION ( #152, #12, #69 ) ;
#3 = AXIS2_PLACEMENT_3D ( 'NONE', #5, #85, #4 ) ;
#4 = DIRECTION ( 'NONE',  ( 1.000000000000000000, 0.0000000000000000000, 0.0000000000000000000 ) ) ;
#5 = CARTESIAN_POINT ( 'NONE',  ( 0.0000000000000000000, 0.0000000000000000000, -1.500000000000000000 ) ) ;
#6 = CARTESIAN_POINT ( 'NONE',  ( -6.249999999999998224, 7.654042494670955634E-16, -1.500000000000000000 ) ) ;
#7 = CARTESIAN_POINT ( 'NONE',  ( 6.249999999999998224, 0.0000000000000000000, -1.500000000000000000 ) ) ;
#8 = FACE_OUTER_BOUND ( 'NONE', #165, .T. ) ;
#9 = PERSON_AND_ORGANIZATION_ROLE ( 'creator' ) ;
#10 = ORIENTED_EDGE ( 'NONE', *, *, #166, .T. ) ;
#11 = ORIENTED_EDGE ( 'NONE', *, *, #49, .T. ) ;
#12 = APPROVAL ( #142, 'UNSPECIFIED' ) ;
#13 = DATE_AND_TIME ( #136, #1 ) ;
#14 = CIRCLE ( 'NONE', #154, 6.249999999999998224 ) ;
#15 = EDGE_CURVE ( 'NONE', #123, #59, #120, .T. ) ;
#16 = PERSON_AND_ORGANIZATION_ROLE ( 'design_owner' ) ;
#17 = CARTESIAN_POINT ( 'NONE',  ( 0.0000000000000000000, 0.0000000000000000000, 0.0000000000000000000 ) ) ;
#18 = DATE_AND_TIME ( #94, #175 ) ;
#19 = DIRECTION ( 'NONE',  ( 0.0000000000000000000, 0.0000000000000000000, 1.000000000000000000 ) ) ;
#20 = DIRECTION ( 'NONE',  ( 0.0000000000000000000, 0.0000000000000000000, 1.000000000000000000 ) ) ;
#21 = DIRECTION ( 'NONE',  ( 0.0000000000000000000, 0.0000000000000000000, 1.000000000000000000 ) ) ;
#22 = PERSON_AND_ORGANIZATION_ROLE ( 'design_supplier' ) ;
#23 = PERSON_AND_ORGANIZATION ( #55, #80 ) ;
#24 = ORIENTED_EDGE ( 'NONE', *, *, #38, .T. ) ;
#25 = ADVANCED_FACE ( 'NONE', ( #162 ), #108, .T. ) ;
#26 = ORIENTED_EDGE ( 'NONE', *, *, #15, .T. ) ;
#27 = PRODUCT ( 'Web Model 47193_13349', 'Web Model 47193_13349', '', ( #83 ) ) ;
#28 = COORDINATED_UNIVERSAL_TIME_OFFSET ( 5, 0, .BEHIND. ) ;
#29 = DIRECTION ( 'NONE',  ( 1.000000000000000000, 0.0000000000000000000, 0.0000000000000000000 ) ) ;
#30 = PERSON_AND_ORGANIZATION ( #55, #80 ) ;
#31 = ADVANCED_BREP_SHAPE_REPRESENTATION ( 'Web Model 47193_13349', ( #173, #109 ), #124 ) ;
#32 = DATE_TIME_ROLE ( 'creation_date' ) ;
#33 = CARTESIAN_POINT ( 'NONE',  ( 0.0000000000000000000, 0.0000000000000000000, -1.500000000000000000 ) ) ;
#34 = COORDINATED_UNIVERSAL_TIME_OFFSET ( 5, 0, .BEHIND. ) ;
#35 = DIRECTION ( 'NONE',  ( 1.000000000000000000, 0.0000000000000000000, 0.0000000000000000000 ) ) ;
#36 = PRODUCT_DEFINITION_FORMATION_WITH_SPECIFIED_SOURCE ( 'ANY', '', #27, .NOT_KNOWN. ) ;
#37 = LINE ( 'NONE', #171, #122 ) ;
#38 = EDGE_CURVE ( 'NONE', #170, #47, #130, .T. ) ;
#39 = EDGE_CURVE ( 'NONE', #59, #123, #150, .T. ) ;
#40 = APPLICATION_PROTOCOL_DEFINITION ( 'international standard', 'config_control_design', 1994, #114 ) ;
#41 = CC_DESIGN_DATE_AND_TIME_ASSIGNMENT ( #86, #93, ( #96 ) ) ;
#42 = PLANE ( 'NONE',  #62 ) ;
#43 = CARTESIAN_POINT ( 'NONE',  ( 0.0000000000000000000, 0.0000000000000000000, 0.0000000000000000000 ) ) ;
#44 = ORIENTED_EDGE ( 'NONE', *, *, #38, .F. ) ;
#45 = LOCAL_TIME ( 8, 56, 43.00000000000000000, #125 ) ;
#46 = PERSON_AND_ORGANIZATION ( #55, #80 ) ;
#47 = VERTEX_POINT ( 'NONE', #145 ) ;
#48 = APPROVAL ( #174, 'UNSPECIFIED' ) ;
#49 = EDGE_CURVE ( 'NONE', #47, #170, #14, .T. ) ;
#50 = CYLINDRICAL_SURFACE ( 'NONE', #3, 6.249999999999998224 ) ;
#51 = EDGE_CURVE ( 'NONE', #123, #170, #37, .T. ) ;
#52 = LOCAL_TIME ( 8, 56, 43.00000000000000000, #98 ) ;
#53 = ORIENTED_EDGE ( 'NONE', *, *, #49, .F. ) ;
#54 = DIRECTION ( 'NONE',  ( 0.0000000000000000000, 0.0000000000000000000, 1.000000000000000000 ) ) ;
#55 = PERSON ( 'UNSPECIFIED', 'UNSPECIFIED', 'UNSPECIFIED', ('UNSPECIFIED'), ('UNSPECIFIED'), ('UNSPECIFIED') ) ;
#56 = PERSON_AND_ORGANIZATION ( #55, #80 ) ;
#57 = DIRECTION ( 'NONE',  ( 1.000000000000000000, 0.0000000000000000000, 0.0000000000000000000 ) ) ;
#58 = PERSON_AND_ORGANIZATION ( #55, #80 ) ;
#59 = VERTEX_POINT ( 'NONE', #118 ) ;
#60 = DIRECTION ( 'NONE',  ( 1.000000000000000000, 0.0000000000000000000, 0.0000000000000000000 ) ) ;
#61 = CARTESIAN_POINT ( 'NONE',  ( 0.0000000000000000000, 0.0000000000000000000, 0.0000000000000000000 ) ) ;
#62 = AXIS2_PLACEMENT_3D ( 'NONE', #127, #71, #143 ) ;
#63 = ORIENTED_EDGE ( 'NONE', *, *, #51, .F. ) ;
#64 = DATE_AND_TIME ( #161, #52 ) ;
#65 = PERSON_AND_ORGANIZATION ( #55, #80 ) ;
#66 = EDGE_LOOP ( 'NONE', ( #116, #72 ) ) ;
#67 = FACE_OUTER_BOUND ( 'NONE', #156, .T. ) ;
#68 = FACE_OUTER_BOUND ( 'NONE', #66, .T. ) ;
#69 = APPROVAL_ROLE ( '' ) ;
#70 = CC_DESIGN_SECURITY_CLASSIFICATION ( #96, ( #36 ) ) ;
#71 = DIRECTION ( 'NONE',  ( 0.0000000000000000000, 0.0000000000000000000, 1.000000000000000000 ) ) ;
#72 = ORIENTED_EDGE ( 'NONE', *, *, #15, .F. ) ;
#73 = APPROVAL_STATUS ( 'not_yet_approved' ) ;
#74 = PRODUCT_DEFINITION_SHAPE ( 'NONE', 'NONE',  #121 ) ;
#75 = CC_DESIGN_APPROVAL ( #90, ( #36 ) ) ;
#76 = UNCERTAINTY_MEASURE_WITH_UNIT (LENGTH_MEASURE( 1.000000000000000082E-05 ), #146, 'distance_accuracy_value', 'NONE');
#77 = AXIS2_PLACEMENT_3D ( 'NONE', #168, #84, #29 ) ;
#78 = ADVANCED_FACE ( 'NONE', ( #67 ), #50, .T. ) ;
#79 = PRODUCT_RELATED_PRODUCT_CATEGORY ( 'detail', '', ( #27 ) ) ;
#80 = ORGANIZATION ( 'UNSPECIFIED', 'UNSPECIFIED', '' ) ;
#81 = VECTOR ( 'NONE', #20, 1000.000000000000000 ) ;
#82 = CC_DESIGN_PERSON_AND_ORGANIZATION_ASSIGNMENT ( #65, #9, ( #36 ) ) ;
#83 = MECHANICAL_CONTEXT ( 'NONE', #167, 'mechanical' ) ;
#84 = DIRECTION ( 'NONE',  ( 0.0000000000000000000, 0.0000000000000000000, 1.000000000000000000 ) ) ;
#85 = DIRECTION ( 'NONE',  ( 0.0000000000000000000, 0.0000000000000000000, 1.000000000000000000 ) ) ;
#86 = DATE_AND_TIME ( #91, #164 ) ;
#87 = CLOSED_SHELL ( 'NONE', ( #25, #78, #137, #97 ) ) ;
#88 = DIRECTION ( 'NONE',  ( 1.000000000000000000, 0.0000000000000000000, -0.0000000000000000000 ) ) ;
#89 =( NAMED_UNIT ( * ) SI_UNIT ( $, .STERADIAN. ) SOLID_ANGLE_UNIT ( ) );
#90 = APPROVAL ( #73, 'UNSPECIFIED' ) ;
#91 = CALENDAR_DATE ( 2020, 4, 11 ) ;
#92 = AXIS2_PLACEMENT_3D ( 'NONE', #17, #19, #60 ) ;
#93 = DATE_TIME_ROLE ( 'classification_date' ) ;
#94 = CALENDAR_DATE ( 2020, 4, 11 ) ;
#95 = ORIENTED_EDGE ( 'NONE', *, *, #39, .T. ) ;
#96 = SECURITY_CLASSIFICATION ( '', '', #160 ) ;
#97 = ADVANCED_FACE ( 'NONE', ( #8 ), #42, .T. ) ;
#98 = COORDINATED_UNIVERSAL_TIME_OFFSET ( 5, 0, .BEHIND. ) ;
#99 = EDGE_LOOP ( 'NONE', ( #95, #149, #53, #153 ) ) ;
#100 = AXIS2_PLACEMENT_3D ( 'NONE', #144, #102, #35 ) ;
#101 = PERSON_AND_ORGANIZATION_ROLE ( 'creator' ) ;
#102 = DIRECTION ( 'NONE',  ( 0.0000000000000000000, 0.0000000000000000000, 1.000000000000000000 ) ) ;
#103 = APPROVAL_PERSON_ORGANIZATION ( #46, #48, #106 ) ;
#104 = PERSON_AND_ORGANIZATION_ROLE ( 'classification_officer' ) ;
#105 = APPROVAL_DATE_TIME ( #18, #90 ) ;
#106 = APPROVAL_ROLE ( '' ) ;
#107 = CC_DESIGN_APPROVAL ( #48, ( #96 ) ) ;
#108 = CYLINDRICAL_SURFACE ( 'NONE', #126, 6.249999999999998224 ) ;
#109 = AXIS2_PLACEMENT_3D ( 'NONE', #61, #159, #57 ) ;
#110 = CARTESIAN_POINT ( 'NONE',  ( 0.0000000000000000000, 0.0000000000000000000, -1.500000000000000000 ) ) ;
#111 = LINE ( 'NONE', #7, #81 ) ;
#112 = DATE_AND_TIME ( #134, #45 ) ;
#113 = CC_DESIGN_APPROVAL ( #12, ( #121 ) ) ;
#114 = APPLICATION_CONTEXT ( 'configuration controlled 3d designs of mechanical parts and assemblies' ) ;
#115 = APPLICATION_PROTOCOL_DEFINITION ( 'international standard', 'config_control_design', 1994, #167 ) ;
#116 = ORIENTED_EDGE ( 'NONE', *, *, #39, .F. ) ;
#117 =( NAMED_UNIT ( * ) PLANE_ANGLE_UNIT ( ) SI_UNIT ( $, .RADIAN. ) );
#118 = CARTESIAN_POINT ( 'NONE',  ( 6.249999999999998224, 0.0000000000000000000, -1.500000000000000000 ) ) ;
#119 = AXIS2_PLACEMENT_3D ( 'NONE', #33, #172, #88 ) ;
#120 = CIRCLE ( 'NONE', #77, 6.249999999999998224 ) ;
#121 = PRODUCT_DEFINITION ( 'UNKNOWN', '', #36, #135 ) ;
#122 = VECTOR ( 'NONE', #157, 1000.000000000000000 ) ;
#123 = VERTEX_POINT ( 'NONE', #6 ) ;
#124 =( GEOMETRIC_REPRESENTATION_CONTEXT ( 3 ) GLOBAL_UNCERTAINTY_ASSIGNED_CONTEXT ( ( #76 ) ) GLOBAL_UNIT_ASSIGNED_CONTEXT ( ( #146, #117, #89 ) ) REPRESENTATION_CONTEXT ( 'NONE', 'WORKASPACE' ) );
#125 = COORDINATED_UNIVERSAL_TIME_OFFSET ( 5, 0, .BEHIND. ) ;
#126 = AXIS2_PLACEMENT_3D ( 'NONE', #110, #54, #151 ) ;
#127 = CARTESIAN_POINT ( 'NONE',  ( 0.0000000000000000000, 0.0000000000000000000, 0.0000000000000000000 ) ) ;
#128 = APPROVAL_PERSON_ORGANIZATION ( #58, #90, #163 ) ;
#129 = CC_DESIGN_DATE_AND_TIME_ASSIGNMENT ( #64, #32, ( #121 ) ) ;
#130 = CIRCLE ( 'NONE', #92, 6.249999999999998224 ) ;
#131 = DIRECTION ( 'NONE',  ( 1.000000000000000000, 0.0000000000000000000, 0.0000000000000000000 ) ) ;
#132 = PLANE ( 'NONE',  #119 ) ;
#133 = CC_DESIGN_PERSON_AND_ORGANIZATION_ASSIGNMENT ( #23, #104, ( #96 ) ) ;
#134 = CALENDAR_DATE ( 2020, 4, 11 ) ;
#135 = DESIGN_CONTEXT ( 'detailed design', #114, 'design' ) ;
#136 = CALENDAR_DATE ( 2020, 4, 11 ) ;
#137 = ADVANCED_FACE ( 'NONE', ( #68 ), #132, .F. ) ;
#138 = PERSON_AND_ORGANIZATION ( #55, #80 ) ;
#139 = CC_DESIGN_PERSON_AND_ORGANIZATION_ASSIGNMENT ( #138, #16, ( #27 ) ) ;
#140 = APPROVAL_DATE_TIME ( #13, #48 ) ;
#141 = COORDINATED_UNIVERSAL_TIME_OFFSET ( 5, 0, .BEHIND. ) ;
#142 = APPROVAL_STATUS ( 'not_yet_approved' ) ;
#143 = DIRECTION ( 'NONE',  ( 1.000000000000000000, 0.0000000000000000000, -0.0000000000000000000 ) ) ;
#144 = CARTESIAN_POINT ( 'NONE',  ( 0.0000000000000000000, 0.0000000000000000000, -1.500000000000000000 ) ) ;
#145 = CARTESIAN_POINT ( 'NONE',  ( 6.249999999999998224, 0.0000000000000000000, 0.0000000000000000000 ) ) ;
#146 =( LENGTH_UNIT ( ) NAMED_UNIT ( * ) SI_UNIT ( .MILLI., .METRE. ) );
#147 = CC_DESIGN_PERSON_AND_ORGANIZATION_ASSIGNMENT ( #56, #101, ( #121 ) ) ;
#148 = APPROVAL_DATE_TIME ( #112, #12 ) ;
#149 = ORIENTED_EDGE ( 'NONE', *, *, #51, .T. ) ;
#150 = CIRCLE ( 'NONE', #100, 6.249999999999998224 ) ;
#151 = DIRECTION ( 'NONE',  ( 1.000000000000000000, 0.0000000000000000000, 0.0000000000000000000 ) ) ;
#152 = PERSON_AND_ORGANIZATION ( #55, #80 ) ;
#153 = ORIENTED_EDGE ( 'NONE', *, *, #166, .F. ) ;
#154 = AXIS2_PLACEMENT_3D ( 'NONE', #43, #21, #131 ) ;
#155 = CC_DESIGN_PERSON_AND_ORGANIZATION_ASSIGNMENT ( #30, #22, ( #36 ) ) ;
#156 = EDGE_LOOP ( 'NONE', ( #63, #26, #10, #44 ) ) ;
#157 = DIRECTION ( 'NONE',  ( 0.0000000000000000000, 0.0000000000000000000, 1.000000000000000000 ) ) ;
#158 = CARTESIAN_POINT ( 'NONE',  ( -6.249999999999998224, 7.654042494670955634E-16, 0.0000000000000000000 ) ) ;
#159 = DIRECTION ( 'NONE',  ( 0.0000000000000000000, 0.0000000000000000000, 1.000000000000000000 ) ) ;
#160 = SECURITY_CLASSIFICATION_LEVEL ( 'unclassified' ) ;
#161 = CALENDAR_DATE ( 2020, 4, 11 ) ;
#162 = FACE_OUTER_BOUND ( 'NONE', #99, .T. ) ;
#163 = APPROVAL_ROLE ( '' ) ;
#164 = LOCAL_TIME ( 8, 56, 43.00000000000000000, #28 ) ;
#165 = EDGE_LOOP ( 'NONE', ( #11, #24 ) ) ;
#166 = EDGE_CURVE ( 'NONE', #59, #47, #111, .T. ) ;
#167 = APPLICATION_CONTEXT ( 'configuration controlled 3d designs of mechanical parts and assemblies' ) ;
#168 = CARTESIAN_POINT ( 'NONE',  ( 0.0000000000000000000, 0.0000000000000000000, -1.500000000000000000 ) ) ;
#169 = SHAPE_DEFINITION_REPRESENTATION ( #74, #31 ) ;
#170 = VERTEX_POINT ( 'NONE', #158 ) ;
#171 = CARTESIAN_POINT ( 'NONE',  ( -6.249999999999998224, 7.654042494670955634E-16, -1.500000000000000000 ) ) ;
#172 = DIRECTION ( 'NONE',  ( 0.0000000000000000000, 0.0000000000000000000, 1.000000000000000000 ) ) ;
#173 = MANIFOLD_SOLID_BREP ( 'Boss-Extrude1', #87 ) ;
#174 = APPROVAL_STATUS ( 'not_yet_approved' ) ;
#175 = LOCAL_TIME ( 8, 56, 43.00000000000000000, #141 ) ;
ENDSEC;
END-ISO-10303-21;
