ISO-10303-21;
HEADER;
FILE_DESCRIPTION (( 'STEP AP203' ),
    '1' );
FILE_NAME ('Web Model 68496.STEP',
    '2017-01-31T20:06:25',
    ( '' ),
    ( '' ),
    'SwSTEP 2.0',
    'SolidWorks 2016',
    '' );
FILE_SCHEMA (( 'CONFIG_CONTROL_DESIGN' ));
ENDSEC;

DATA;
#1 = EDGE_CURVE ( 'NONE', #78, #107, #97, .T. ) ;
#2 = DIRECTION ( 'NONE',  ( -0.0000000000000000000, -0.0000000000000000000, -1.000000000000000000 ) ) ;
#3 = PRODUCT_DEFINITION_FORMATION_WITH_SPECIFIED_SOURCE ( 'ANY', '', #144, .NOT_KNOWN. ) ;
#4 = ORIENTED_EDGE ( 'NONE', *, *, #14, .T. ) ;
#5 = CARTESIAN_POINT ( 'NONE',  ( 0.0000000000000000000, 0.0000000000000000000, 3.000000000000000000 ) ) ;
#6 = CARTESIAN_POINT ( 'NONE',  ( 0.0000000000000000000, 0.0000000000000000000, 3.000000000000000000 ) ) ;
#7 = LOCAL_TIME ( 15, 6, 25.00000000000000000, #11 ) ;
#8 = CARTESIAN_POINT ( 'NONE',  ( 25.00000000000000000, 3.061616997868383000E-015, 0.0000000000000000000 ) ) ;
#9 = APPROVAL_ROLE ( '' ) ;
#10 = LOCAL_TIME ( 15, 6, 25.00000000000000000, #66 ) ;
#11 = COORDINATED_UNIVERSAL_TIME_OFFSET ( 5, 0, .BEHIND. ) ;
#12 = ORIENTED_EDGE ( 'NONE', *, *, #26, .F. ) ;
#13 = APPROVAL ( #172, 'UNSPECIFIED' ) ;
#14 = EDGE_CURVE ( 'NONE', #159, #142, #145, .T. ) ;
#15 = CALENDAR_DATE ( 2017, 31, 1 ) ;
#16 = AXIS2_PLACEMENT_3D ( 'NONE', #6, #41, #93 ) ;
#17 = PERSON_AND_ORGANIZATION ( #131, #115 ) ;
#18 = FACE_OUTER_BOUND ( 'NONE', #53, .T. ) ;
#19 = DIRECTION ( 'NONE',  ( -0.0000000000000000000, -0.0000000000000000000, -1.000000000000000000 ) ) ;
#20 = CC_DESIGN_PERSON_AND_ORGANIZATION_ASSIGNMENT ( #88, #146, ( #170 ) ) ;
#21 = CARTESIAN_POINT ( 'NONE',  ( 25.00000000000000000, 3.061616997868383000E-015, 3.000000000000000000 ) ) ;
#22 = VECTOR ( 'NONE', #2, 1000.000000000000000 ) ;
#23 = AXIS2_PLACEMENT_3D ( 'NONE', #40, #112, #51 ) ;
#24 = DIRECTION ( 'NONE',  ( 0.0000000000000000000, 0.0000000000000000000, 1.000000000000000000 ) ) ;
#25 = DIRECTION ( 'NONE',  ( 1.000000000000000000, 0.0000000000000000000, 0.0000000000000000000 ) ) ;
#26 = EDGE_CURVE ( 'NONE', #159, #78, #90, .T. ) ;
#27 = DATE_AND_TIME ( #72, #39 ) ;
#28 = UNCERTAINTY_MEASURE_WITH_UNIT (LENGTH_MEASURE( 1.000000000000000100E-005 ), #46, 'distance_accuracy_value', 'NONE');
#29 = EDGE_CURVE ( 'NONE', #78, #159, #57, .T. ) ;
#30 = PERSON_AND_ORGANIZATION_ROLE ( 'design_supplier' ) ;
#31 = CC_DESIGN_DATE_AND_TIME_ASSIGNMENT ( #155, #120, ( #165 ) ) ;
#32 = PERSON_AND_ORGANIZATION_ROLE ( 'design_owner' ) ;
#33 = APPROVAL_PERSON_ORGANIZATION ( #133, #13, #83 ) ;
#34 = EDGE_LOOP ( 'NONE', ( #60, #85 ) ) ;
#35 = ADVANCED_FACE ( 'NONE', ( #73 ), #150, .F. ) ;
#36 = DIRECTION ( 'NONE',  ( -1.000000000000000000, 0.0000000000000000000, 0.0000000000000000000 ) ) ;
#37 = ADVANCED_BREP_SHAPE_REPRESENTATION ( 'Web Model 68496', ( #58, #163 ), #47 ) ;
#38 = DESIGN_CONTEXT ( 'detailed design', #105, 'design' ) ;
#39 = LOCAL_TIME ( 15, 6, 25.00000000000000000, #84 ) ;
#40 = CARTESIAN_POINT ( 'NONE',  ( 0.0000000000000000000, 0.0000000000000000000, 3.000000000000000000 ) ) ;
#41 = DIRECTION ( 'NONE',  ( -0.0000000000000000000, -0.0000000000000000000, -1.000000000000000000 ) ) ;
#42 = APPROVAL_DATE_TIME ( #27, #13 ) ;
#43 = FACE_OUTER_BOUND ( 'NONE', #126, .T. ) ;
#44 = CARTESIAN_POINT ( 'NONE',  ( 0.0000000000000000000, 0.0000000000000000000, 3.000000000000000000 ) ) ;
#45 =( NAMED_UNIT ( * ) SI_UNIT ( $, .STERADIAN. ) SOLID_ANGLE_UNIT ( ) );
#46 =( LENGTH_UNIT ( ) NAMED_UNIT ( * ) SI_UNIT ( .MILLI., .METRE. ) );
#47 =( GEOMETRIC_REPRESENTATION_CONTEXT ( 3 ) GLOBAL_UNCERTAINTY_ASSIGNED_CONTEXT ( ( #28 ) ) GLOBAL_UNIT_ASSIGNED_CONTEXT ( ( #46, #79, #45 ) ) REPRESENTATION_CONTEXT ( 'NONE', 'WORKASPACE' ) );
#48 = DATE_AND_TIME ( #69, #10 ) ;
#49 = APPROVAL_STATUS ( 'not_yet_approved' ) ;
#50 = ADVANCED_FACE ( 'NONE', ( #164 ), #75, .T. ) ;
#51 = DIRECTION ( 'NONE',  ( 1.000000000000000000, 0.0000000000000000000, 0.0000000000000000000 ) ) ;
#52 = LOCAL_TIME ( 15, 6, 25.00000000000000000, #125 ) ;
#53 = EDGE_LOOP ( 'NONE', ( #156, #95, #98, #116 ) ) ;
#54 = CIRCLE ( 'NONE', #111, 25.00000000000000000 ) ;
#55 = DIRECTION ( 'NONE',  ( -0.0000000000000000000, -0.0000000000000000000, -1.000000000000000000 ) ) ;
#56 = MECHANICAL_CONTEXT ( 'NONE', #161, 'mechanical' ) ;
#57 = CIRCLE ( 'NONE', #23, 25.00000000000000000 ) ;
#58 = MANIFOLD_SOLID_BREP ( 'Extrude1', #123 ) ;
#59 = PERSON_AND_ORGANIZATION ( #131, #115 ) ;
#60 = ORIENTED_EDGE ( 'NONE', *, *, #65, .F. ) ;
#61 = APPROVAL_PERSON_ORGANIZATION ( #110, #77, #9 ) ;
#62 = AXIS2_PLACEMENT_3D ( 'NONE', #153, #113, #101 ) ;
#63 = ORIENTED_EDGE ( 'NONE', *, *, #29, .T. ) ;
#64 = CARTESIAN_POINT ( 'NONE',  ( 0.0000000000000000000, 0.0000000000000000000, 0.0000000000000000000 ) ) ;
#65 = EDGE_CURVE ( 'NONE', #107, #142, #119, .T. ) ;
#66 = COORDINATED_UNIVERSAL_TIME_OFFSET ( 5, 0, .BEHIND. ) ;
#67 = ORIENTED_EDGE ( 'NONE', *, *, #1, .F. ) ;
#68 = CC_DESIGN_PERSON_AND_ORGANIZATION_ASSIGNMENT ( #136, #118, ( #165 ) ) ;
#69 = CALENDAR_DATE ( 2017, 31, 1 ) ;
#70 = DATE_TIME_ROLE ( 'creation_date' ) ;
#71 = AXIS2_PLACEMENT_3D ( 'NONE', #5, #76, #99 ) ;
#72 = CALENDAR_DATE ( 2017, 31, 1 ) ;
#73 = FACE_OUTER_BOUND ( 'NONE', #34, .T. ) ;
#74 = EDGE_CURVE ( 'NONE', #142, #107, #54, .T. ) ;
#75 = PLANE ( 'NONE',  #127 ) ;
#76 = DIRECTION ( 'NONE',  ( 0.0000000000000000000, 0.0000000000000000000, 1.000000000000000000 ) ) ;
#77 = APPROVAL ( #160, 'UNSPECIFIED' ) ;
#78 = VERTEX_POINT ( 'NONE', #139 ) ;
#79 =( NAMED_UNIT ( * ) PLANE_ANGLE_UNIT ( ) SI_UNIT ( $, .RADIAN. ) );
#80 = APPLICATION_PROTOCOL_DEFINITION ( 'international standard', 'config_control_design', 1994, #105 ) ;
#81 = SECURITY_CLASSIFICATION_LEVEL ( 'unclassified' ) ;
#82 = DATE_AND_TIME ( #171, #7 ) ;
#83 = APPROVAL_ROLE ( '' ) ;
#84 = COORDINATED_UNIVERSAL_TIME_OFFSET ( 5, 0, .BEHIND. ) ;
#85 = ORIENTED_EDGE ( 'NONE', *, *, #74, .F. ) ;
#86 = CC_DESIGN_DATE_AND_TIME_ASSIGNMENT ( #148, #70, ( #170 ) ) ;
#87 = APPROVAL_PERSON_ORGANIZATION ( #152, #108, #132 ) ;
#88 = PERSON_AND_ORGANIZATION ( #131, #115 ) ;
#89 = CYLINDRICAL_SURFACE ( 'NONE', #147, 25.00000000000000000 ) ;
#90 = CIRCLE ( 'NONE', #71, 25.00000000000000000 ) ;
#91 = DIRECTION ( 'NONE',  ( 1.000000000000000000, 0.0000000000000000000, 0.0000000000000000000 ) ) ;
#92 = CYLINDRICAL_SURFACE ( 'NONE', #16, 25.00000000000000000 ) ;
#93 = DIRECTION ( 'NONE',  ( -1.000000000000000000, 0.0000000000000000000, 0.0000000000000000000 ) ) ;
#94 = CALENDAR_DATE ( 2017, 31, 1 ) ;
#95 = ORIENTED_EDGE ( 'NONE', *, *, #29, .F. ) ;
#96 = ADVANCED_FACE ( 'NONE', ( #18 ), #92, .T. ) ;
#97 = LINE ( 'NONE', #100, #22 ) ;
#98 = ORIENTED_EDGE ( 'NONE', *, *, #1, .T. ) ;
#99 = DIRECTION ( 'NONE',  ( 1.000000000000000000, 0.0000000000000000000, 0.0000000000000000000 ) ) ;
#100 = CARTESIAN_POINT ( 'NONE',  ( -25.00000000000000000, 0.0000000000000000000, 3.000000000000000000 ) ) ;
#101 = DIRECTION ( 'NONE',  ( 1.000000000000000000, 0.0000000000000000000, -0.0000000000000000000 ) ) ;
#102 = COORDINATED_UNIVERSAL_TIME_OFFSET ( 5, 0, .BEHIND. ) ;
#103 = DIRECTION ( 'NONE',  ( 0.0000000000000000000, 0.0000000000000000000, 1.000000000000000000 ) ) ;
#104 = CARTESIAN_POINT ( 'NONE',  ( 0.0000000000000000000, 0.0000000000000000000, 0.0000000000000000000 ) ) ;
#105 = APPLICATION_CONTEXT ( 'configuration controlled 3d designs of mechanical parts and assemblies' ) ;
#106 = APPROVAL_DATE_TIME ( #82, #108 ) ;
#107 = VERTEX_POINT ( 'NONE', #114 ) ;
#108 = APPROVAL ( #49, 'UNSPECIFIED' ) ;
#109 = EDGE_LOOP ( 'NONE', ( #63, #162 ) ) ;
#110 = PERSON_AND_ORGANIZATION ( #131, #115 ) ;
#111 = AXIS2_PLACEMENT_3D ( 'NONE', #168, #103, #91 ) ;
#112 = DIRECTION ( 'NONE',  ( 0.0000000000000000000, 0.0000000000000000000, 1.000000000000000000 ) ) ;
#113 = DIRECTION ( 'NONE',  ( 0.0000000000000000000, 0.0000000000000000000, 1.000000000000000000 ) ) ;
#114 = CARTESIAN_POINT ( 'NONE',  ( -25.00000000000000000, 0.0000000000000000000, 0.0000000000000000000 ) ) ;
#115 = ORGANIZATION ( 'UNSPECIFIED', 'UNSPECIFIED', '' ) ;
#116 = ORIENTED_EDGE ( 'NONE', *, *, #65, .T. ) ;
#117 = APPLICATION_PROTOCOL_DEFINITION ( 'international standard', 'config_control_design', 1994, #161 ) ;
#118 = PERSON_AND_ORGANIZATION_ROLE ( 'classification_officer' ) ;
#119 = CIRCLE ( 'NONE', #138, 25.00000000000000000 ) ;
#120 = DATE_TIME_ROLE ( 'classification_date' ) ;
#121 = CC_DESIGN_PERSON_AND_ORGANIZATION_ASSIGNMENT ( #154, #32, ( #144 ) ) ;
#122 = VECTOR ( 'NONE', #19, 1000.000000000000000 ) ;
#123 = CLOSED_SHELL ( 'NONE', ( #135, #96, #50, #35 ) ) ;
#124 = CC_DESIGN_APPROVAL ( #108, ( #165 ) ) ;
#125 = COORDINATED_UNIVERSAL_TIME_OFFSET ( 5, 0, .BEHIND. ) ;
#126 = EDGE_LOOP ( 'NONE', ( #12, #4, #151, #67 ) ) ;
#127 = AXIS2_PLACEMENT_3D ( 'NONE', #140, #169, #141 ) ;
#128 = CC_DESIGN_PERSON_AND_ORGANIZATION_ASSIGNMENT ( #59, #158, ( #3 ) ) ;
#129 = DIRECTION ( 'NONE',  ( 0.0000000000000000000, 0.0000000000000000000, 1.000000000000000000 ) ) ;
#130 = PRODUCT_DEFINITION_SHAPE ( 'NONE', 'NONE',  #170 ) ;
#131 = PERSON ( 'UNSPECIFIED', 'UNSPECIFIED', 'UNSPECIFIED', ('UNSPECIFIED'), ('UNSPECIFIED'), ('UNSPECIFIED') ) ;
#132 = APPROVAL_ROLE ( '' ) ;
#133 = PERSON_AND_ORGANIZATION ( #131, #115 ) ;
#134 = CC_DESIGN_APPROVAL ( #13, ( #3 ) ) ;
#135 = ADVANCED_FACE ( 'NONE', ( #43 ), #89, .T. ) ;
#136 = PERSON_AND_ORGANIZATION ( #131, #115 ) ;
#137 = SHAPE_DEFINITION_REPRESENTATION ( #130, #37 ) ;
#138 = AXIS2_PLACEMENT_3D ( 'NONE', #64, #129, #166 ) ;
#139 = CARTESIAN_POINT ( 'NONE',  ( -25.00000000000000000, 0.0000000000000000000, 3.000000000000000000 ) ) ;
#140 = CARTESIAN_POINT ( 'NONE',  ( 0.0000000000000000000, 0.0000000000000000000, 3.000000000000000000 ) ) ;
#141 = DIRECTION ( 'NONE',  ( 1.000000000000000000, 0.0000000000000000000, -0.0000000000000000000 ) ) ;
#142 = VERTEX_POINT ( 'NONE', #8 ) ;
#143 = CC_DESIGN_SECURITY_CLASSIFICATION ( #165, ( #3 ) ) ;
#144 = PRODUCT ( 'Web Model 68496', 'Web Model 68496', '', ( #56 ) ) ;
#145 = LINE ( 'NONE', #21, #122 ) ;
#146 = PERSON_AND_ORGANIZATION_ROLE ( 'creator' ) ;
#147 = AXIS2_PLACEMENT_3D ( 'NONE', #44, #55, #36 ) ;
#148 = DATE_AND_TIME ( #94, #52 ) ;
#149 = PRODUCT_RELATED_PRODUCT_CATEGORY ( 'detail', '', ( #144 ) ) ;
#150 = PLANE ( 'NONE',  #62 ) ;
#151 = ORIENTED_EDGE ( 'NONE', *, *, #74, .T. ) ;
#152 = PERSON_AND_ORGANIZATION ( #131, #115 ) ;
#153 = CARTESIAN_POINT ( 'NONE',  ( 0.0000000000000000000, 0.0000000000000000000, 0.0000000000000000000 ) ) ;
#154 = PERSON_AND_ORGANIZATION ( #131, #115 ) ;
#155 = DATE_AND_TIME ( #15, #157 ) ;
#156 = ORIENTED_EDGE ( 'NONE', *, *, #14, .F. ) ;
#157 = LOCAL_TIME ( 15, 6, 25.00000000000000000, #102 ) ;
#158 = PERSON_AND_ORGANIZATION_ROLE ( 'creator' ) ;
#159 = VERTEX_POINT ( 'NONE', #173 ) ;
#160 = APPROVAL_STATUS ( 'not_yet_approved' ) ;
#161 = APPLICATION_CONTEXT ( 'configuration controlled 3d designs of mechanical parts and assemblies' ) ;
#162 = ORIENTED_EDGE ( 'NONE', *, *, #26, .T. ) ;
#163 = AXIS2_PLACEMENT_3D ( 'NONE', #104, #24, #25 ) ;
#164 = FACE_OUTER_BOUND ( 'NONE', #109, .T. ) ;
#165 = SECURITY_CLASSIFICATION ( '', '', #81 ) ;
#166 = DIRECTION ( 'NONE',  ( 1.000000000000000000, 0.0000000000000000000, 0.0000000000000000000 ) ) ;
#167 = APPROVAL_DATE_TIME ( #48, #77 ) ;
#168 = CARTESIAN_POINT ( 'NONE',  ( 0.0000000000000000000, 0.0000000000000000000, 0.0000000000000000000 ) ) ;
#169 = DIRECTION ( 'NONE',  ( 0.0000000000000000000, 0.0000000000000000000, 1.000000000000000000 ) ) ;
#170 = PRODUCT_DEFINITION ( 'UNKNOWN', '', #3, #38 ) ;
#171 = CALENDAR_DATE ( 2017, 31, 1 ) ;
#172 = APPROVAL_STATUS ( 'not_yet_approved' ) ;
#173 = CARTESIAN_POINT ( 'NONE',  ( 25.00000000000000000, 3.061616997868383000E-015, 3.000000000000000000 ) ) ;
#174 = CC_DESIGN_PERSON_AND_ORGANIZATION_ASSIGNMENT ( #17, #30, ( #3 ) ) ;
#175 = CC_DESIGN_APPROVAL ( #77, ( #170 ) ) ;
ENDSEC;
END-ISO-10303-21;
