ISO-10303-21;
HEADER;
FILE_DESCRIPTION (( 'STEP AP203' ),
    '1' );
FILE_NAME ('Web Model 39233_39248.step',
    '2018-07-25T17:10:10',
    ( '' ),
    ( '' ),
    'SwSTEP 2.0',
    'SolidWorks 2016',
    '' );
FILE_SCHEMA (( 'CONFIG_CONTROL_DESIGN' ));
ENDSEC;

DATA;
#1 = LINE ( 'NONE', #70, #155 ) ;
#2 = PRODUCT_DEFINITION_SHAPE ( 'NONE', 'NONE',  #57 ) ;
#3 = VERTEX_POINT ( 'NONE', #128 ) ;
#4 = PERSON_AND_ORGANIZATION ( #52, #112 ) ;
#5 = ORIENTED_EDGE ( 'NONE', *, *, #120, .T. ) ;
#6 = CC_DESIGN_DATE_AND_TIME_ASSIGNMENT ( #149, #50, ( #113 ) ) ;
#7 = PERSON_AND_ORGANIZATION ( #52, #112 ) ;
#8 = PRODUCT_DEFINITION_FORMATION_WITH_SPECIFIED_SOURCE ( 'ANY', '', #45, .NOT_KNOWN. ) ;
#9 = DIRECTION ( 'NONE',  ( 0.0000000000000000000, 0.0000000000000000000, 1.000000000000000000 ) ) ;
#10 = CARTESIAN_POINT ( 'NONE',  ( 12.69999999999999600, 1.555301434917138000E-015, -1.149999999999999900 ) ) ;
#11 = CALENDAR_DATE ( 2018, 25, 7 ) ;
#12 = DIRECTION ( 'NONE',  ( 1.000000000000000000, 0.0000000000000000000, -0.0000000000000000000 ) ) ;
#13 = PERSON_AND_ORGANIZATION_ROLE ( 'design_owner' ) ;
#14 = LOCAL_TIME ( 13, 10, 10.00000000000000000, #77 ) ;
#15 = CYLINDRICAL_SURFACE ( 'NONE', #140, 12.69999999999999600 ) ;
#16 = APPROVAL ( #132, 'UNSPECIFIED' ) ;
#17 = DATE_AND_TIME ( #42, #168 ) ;
#18 = CC_DESIGN_PERSON_AND_ORGANIZATION_ASSIGNMENT ( #47, #13, ( #45 ) ) ;
#19 = CARTESIAN_POINT ( 'NONE',  ( 0.0000000000000000000, 0.0000000000000000000, 1.149999999999999900 ) ) ;
#20 = ORIENTED_EDGE ( 'NONE', *, *, #31, .T. ) ;
#21 = DIRECTION ( 'NONE',  ( 1.000000000000000000, 0.0000000000000000000, 0.0000000000000000000 ) ) ;
#22 = ORIENTED_EDGE ( 'NONE', *, *, #163, .F. ) ;
#23 = MECHANICAL_CONTEXT ( 'NONE', #172, 'mechanical' ) ;
#24 = APPROVAL_ROLE ( '' ) ;
#25 = CARTESIAN_POINT ( 'NONE',  ( 0.0000000000000000000, 0.0000000000000000000, 0.0000000000000000000 ) ) ;
#26 = VERTEX_POINT ( 'NONE', #48 ) ;
#27 = CARTESIAN_POINT ( 'NONE',  ( 0.0000000000000000000, 0.0000000000000000000, 1.149999999999999900 ) ) ;
#28 = COORDINATED_UNIVERSAL_TIME_OFFSET ( 5, 0, .BEHIND. ) ;
#29 = VERTEX_POINT ( 'NONE', #10 ) ;
#30 = PLANE ( 'NONE',  #104 ) ;
#31 = EDGE_CURVE ( 'NONE', #134, #26, #74, .T. ) ;
#32 = ADVANCED_FACE ( 'NONE', ( #119 ), #30, .F. ) ;
#33 = DIRECTION ( 'NONE',  ( -0.0000000000000000000, -0.0000000000000000000, -1.000000000000000000 ) ) ;
#34 = CARTESIAN_POINT ( 'NONE',  ( 0.0000000000000000000, 0.0000000000000000000, 1.149999999999999900 ) ) ;
#35 = DIRECTION ( 'NONE',  ( 1.000000000000000000, 0.0000000000000000000, 0.0000000000000000000 ) ) ;
#36 = DIRECTION ( 'NONE',  ( -0.0000000000000000000, -0.0000000000000000000, -1.000000000000000000 ) ) ;
#37 = PERSON_AND_ORGANIZATION ( #52, #112 ) ;
#38 = COORDINATED_UNIVERSAL_TIME_OFFSET ( 5, 0, .BEHIND. ) ;
#39 = APPROVAL_ROLE ( '' ) ;
#40 = DIRECTION ( 'NONE',  ( 0.0000000000000000000, 0.0000000000000000000, 1.000000000000000000 ) ) ;
#41 = FACE_OUTER_BOUND ( 'NONE', #56, .T. ) ;
#42 = CALENDAR_DATE ( 2018, 25, 7 ) ;
#43 = AXIS2_PLACEMENT_3D ( 'NONE', #34, #40, #12 ) ;
#44 = DATE_AND_TIME ( #137, #103 ) ;
#45 = PRODUCT ( 'Web Model 39233_39248', 'Web Model 39233_39248', '', ( #23 ) ) ;
#46 = AXIS2_PLACEMENT_3D ( 'NONE', #25, #175, #146 ) ;
#47 = PERSON_AND_ORGANIZATION ( #52, #112 ) ;
#48 = CARTESIAN_POINT ( 'NONE',  ( -12.69999999999999600, 0.0000000000000000000, -1.149999999999999900 ) ) ;
#49 = DIRECTION ( 'NONE',  ( 0.0000000000000000000, 0.0000000000000000000, 1.000000000000000000 ) ) ;
#50 = DATE_TIME_ROLE ( 'classification_date' ) ;
#51 = APPLICATION_CONTEXT ( 'configuration controlled 3d designs of mechanical parts and assemblies' ) ;
#52 = PERSON ( 'UNSPECIFIED', 'UNSPECIFIED', 'UNSPECIFIED', ('UNSPECIFIED'), ('UNSPECIFIED'), ('UNSPECIFIED') ) ;
#53 = PERSON_AND_ORGANIZATION_ROLE ( 'design_supplier' ) ;
#54 = CARTESIAN_POINT ( 'NONE',  ( 0.0000000000000000000, 0.0000000000000000000, -1.149999999999999900 ) ) ;
#55 = AXIS2_PLACEMENT_3D ( 'NONE', #141, #114, #35 ) ;
#56 = EDGE_LOOP ( 'NONE', ( #106, #5 ) ) ;
#57 = PRODUCT_DEFINITION ( 'UNKNOWN', '', #8, #130 ) ;
#58 = CLOSED_SHELL ( 'NONE', ( #87, #76, #124, #32 ) ) ;
#59 = APPROVAL ( #65, 'UNSPECIFIED' ) ;
#60 = APPROVAL_DATE_TIME ( #129, #59 ) ;
#61 = CALENDAR_DATE ( 2018, 25, 7 ) ;
#62 = DIRECTION ( 'NONE',  ( -1.000000000000000000, 0.0000000000000000000, 0.0000000000000000000 ) ) ;
#63 = ORIENTED_EDGE ( 'NONE', *, *, #99, .T. ) ;
#64 = APPROVAL_DATE_TIME ( #44, #68 ) ;
#65 = APPROVAL_STATUS ( 'not_yet_approved' ) ;
#66 = CIRCLE ( 'NONE', #156, 12.69999999999999600 ) ;
#67 = CC_DESIGN_SECURITY_CLASSIFICATION ( #113, ( #8 ) ) ;
#68 = APPROVAL ( #105, 'UNSPECIFIED' ) ;
#69 =( LENGTH_UNIT ( ) NAMED_UNIT ( * ) SI_UNIT ( .MILLI., .METRE. ) );
#70 = CARTESIAN_POINT ( 'NONE',  ( 12.69999999999999600, 1.555301434917138000E-015, 1.149999999999999900 ) ) ;
#71 = ORIENTED_EDGE ( 'NONE', *, *, #163, .T. ) ;
#72 = UNCERTAINTY_MEASURE_WITH_UNIT (LENGTH_MEASURE( 1.000000000000000100E-005 ), #69, 'distance_accuracy_value', 'NONE');
#73 = APPROVAL_PERSON_ORGANIZATION ( #133, #16, #24 ) ;
#74 = LINE ( 'NONE', #143, #174 ) ;
#75 = CC_DESIGN_APPROVAL ( #59, ( #8 ) ) ;
#76 = ADVANCED_FACE ( 'NONE', ( #90 ), #162, .T. ) ;
#77 = COORDINATED_UNIVERSAL_TIME_OFFSET ( 5, 0, .BEHIND. ) ;
#78 =( NAMED_UNIT ( * ) PLANE_ANGLE_UNIT ( ) SI_UNIT ( $, .RADIAN. ) );
#79 = PERSON_AND_ORGANIZATION ( #52, #112 ) ;
#80 = DIRECTION ( 'NONE',  ( 1.000000000000000000, 0.0000000000000000000, 0.0000000000000000000 ) ) ;
#81 = APPROVAL_ROLE ( '' ) ;
#82 = CC_DESIGN_APPROVAL ( #68, ( #57 ) ) ;
#83 = CC_DESIGN_PERSON_AND_ORGANIZATION_ASSIGNMENT ( #4, #107, ( #57 ) ) ;
#84 = CIRCLE ( 'NONE', #122, 12.69999999999999600 ) ;
#85 = MANIFOLD_SOLID_BREP ( 'Boss-Extrude1', #58 ) ;
#86 = CARTESIAN_POINT ( 'NONE',  ( 0.0000000000000000000, 0.0000000000000000000, 1.149999999999999900 ) ) ;
#87 = ADVANCED_FACE ( 'NONE', ( #159 ), #15, .T. ) ;
#88 = ADVANCED_BREP_SHAPE_REPRESENTATION ( 'Web Model 39233_39248', ( #85, #46 ), #152 ) ;
#89 = CC_DESIGN_PERSON_AND_ORGANIZATION_ASSIGNMENT ( #94, #118, ( #8 ) ) ;
#90 = FACE_OUTER_BOUND ( 'NONE', #171, .T. ) ;
#91 = SECURITY_CLASSIFICATION_LEVEL ( 'unclassified' ) ;
#92 = DIRECTION ( 'NONE',  ( -0.0000000000000000000, -0.0000000000000000000, -1.000000000000000000 ) ) ;
#93 = PERSON_AND_ORGANIZATION_ROLE ( 'classification_officer' ) ;
#94 = PERSON_AND_ORGANIZATION ( #52, #112 ) ;
#95 = EDGE_CURVE ( 'NONE', #134, #3, #125, .T. ) ;
#96 = PRODUCT_RELATED_PRODUCT_CATEGORY ( 'detail', '', ( #45 ) ) ;
#97 = EDGE_CURVE ( 'NONE', #29, #26, #121, .T. ) ;
#98 = PLANE ( 'NONE',  #43 ) ;
#99 = EDGE_CURVE ( 'NONE', #26, #29, #66, .T. ) ;
#100 = ORIENTED_EDGE ( 'NONE', *, *, #99, .F. ) ;
#101 = DIRECTION ( 'NONE',  ( -0.0000000000000000000, -0.0000000000000000000, -1.000000000000000000 ) ) ;
#102 = COORDINATED_UNIVERSAL_TIME_OFFSET ( 5, 0, .BEHIND. ) ;
#103 = LOCAL_TIME ( 13, 10, 10.00000000000000000, #38 ) ;
#104 = AXIS2_PLACEMENT_3D ( 'NONE', #167, #49, #170 ) ;
#105 = APPROVAL_STATUS ( 'not_yet_approved' ) ;
#106 = ORIENTED_EDGE ( 'NONE', *, *, #95, .T. ) ;
#107 = PERSON_AND_ORGANIZATION_ROLE ( 'creator' ) ;
#108 = CC_DESIGN_PERSON_AND_ORGANIZATION_ASSIGNMENT ( #7, #53, ( #8 ) ) ;
#109 = CC_DESIGN_PERSON_AND_ORGANIZATION_ASSIGNMENT ( #79, #93, ( #113 ) ) ;
#110 = EDGE_LOOP ( 'NONE', ( #142, #71, #123, #161 ) ) ;
#111 = AXIS2_PLACEMENT_3D ( 'NONE', #86, #101, #62 ) ;
#112 = ORGANIZATION ( 'UNSPECIFIED', 'UNSPECIFIED', '' ) ;
#113 = SECURITY_CLASSIFICATION ( '', '', #91 ) ;
#114 = DIRECTION ( 'NONE',  ( 0.0000000000000000000, 0.0000000000000000000, 1.000000000000000000 ) ) ;
#115 = APPLICATION_PROTOCOL_DEFINITION ( 'international standard', 'config_control_design', 1994, #172 ) ;
#116 = AXIS2_PLACEMENT_3D ( 'NONE', #127, #9, #21 ) ;
#117 = DATE_TIME_ROLE ( 'creation_date' ) ;
#118 = PERSON_AND_ORGANIZATION_ROLE ( 'creator' ) ;
#119 = FACE_OUTER_BOUND ( 'NONE', #157, .T. ) ;
#120 = EDGE_CURVE ( 'NONE', #3, #134, #84, .T. ) ;
#121 = CIRCLE ( 'NONE', #55, 12.69999999999999600 ) ;
#122 = AXIS2_PLACEMENT_3D ( 'NONE', #27, #173, #80 ) ;
#123 = ORIENTED_EDGE ( 'NONE', *, *, #97, .T. ) ;
#124 = ADVANCED_FACE ( 'NONE', ( #41 ), #98, .T. ) ;
#125 = CIRCLE ( 'NONE', #116, 12.69999999999999600 ) ;
#126 = ORIENTED_EDGE ( 'NONE', *, *, #95, .F. ) ;
#127 = CARTESIAN_POINT ( 'NONE',  ( 0.0000000000000000000, 0.0000000000000000000, 1.149999999999999900 ) ) ;
#128 = CARTESIAN_POINT ( 'NONE',  ( 12.69999999999999600, 1.555301434917138000E-015, 1.149999999999999900 ) ) ;
#129 = DATE_AND_TIME ( #11, #136 ) ;
#130 = DESIGN_CONTEXT ( 'detailed design', #51, 'design' ) ;
#131 = DIRECTION ( 'NONE',  ( 0.0000000000000000000, 0.0000000000000000000, 1.000000000000000000 ) ) ;
#132 = APPROVAL_STATUS ( 'not_yet_approved' ) ;
#133 = PERSON_AND_ORGANIZATION ( #52, #112 ) ;
#134 = VERTEX_POINT ( 'NONE', #145 ) ;
#135 = COORDINATED_UNIVERSAL_TIME_OFFSET ( 5, 0, .BEHIND. ) ;
#136 = LOCAL_TIME ( 13, 10, 10.00000000000000000, #102 ) ;
#137 = CALENDAR_DATE ( 2018, 25, 7 ) ;
#138 = APPROVAL_DATE_TIME ( #17, #16 ) ;
#139 = APPROVAL_PERSON_ORGANIZATION ( #37, #59, #81 ) ;
#140 = AXIS2_PLACEMENT_3D ( 'NONE', #19, #33, #169 ) ;
#141 = CARTESIAN_POINT ( 'NONE',  ( 0.0000000000000000000, 0.0000000000000000000, -1.149999999999999900 ) ) ;
#142 = ORIENTED_EDGE ( 'NONE', *, *, #120, .F. ) ;
#143 = CARTESIAN_POINT ( 'NONE',  ( -12.69999999999999600, 0.0000000000000000000, 1.149999999999999900 ) ) ;
#144 = PERSON_AND_ORGANIZATION ( #52, #112 ) ;
#145 = CARTESIAN_POINT ( 'NONE',  ( -12.69999999999999600, 0.0000000000000000000, 1.149999999999999900 ) ) ;
#146 = DIRECTION ( 'NONE',  ( 1.000000000000000000, 0.0000000000000000000, 0.0000000000000000000 ) ) ;
#147 = CC_DESIGN_DATE_AND_TIME_ASSIGNMENT ( #150, #117, ( #57 ) ) ;
#148 = DIRECTION ( 'NONE',  ( 1.000000000000000000, 0.0000000000000000000, 0.0000000000000000000 ) ) ;
#149 = DATE_AND_TIME ( #153, #166 ) ;
#150 = DATE_AND_TIME ( #61, #14 ) ;
#151 = APPROVAL_PERSON_ORGANIZATION ( #144, #68, #39 ) ;
#152 =( GEOMETRIC_REPRESENTATION_CONTEXT ( 3 ) GLOBAL_UNCERTAINTY_ASSIGNED_CONTEXT ( ( #72 ) ) GLOBAL_UNIT_ASSIGNED_CONTEXT ( ( #69, #78, #160 ) ) REPRESENTATION_CONTEXT ( 'NONE', 'WORKASPACE' ) );
#153 = CALENDAR_DATE ( 2018, 25, 7 ) ;
#154 = SHAPE_DEFINITION_REPRESENTATION ( #2, #88 ) ;
#155 = VECTOR ( 'NONE', #92, 1000.000000000000000 ) ;
#156 = AXIS2_PLACEMENT_3D ( 'NONE', #54, #131, #148 ) ;
#157 = EDGE_LOOP ( 'NONE', ( #100, #164 ) ) ;
#158 = APPLICATION_PROTOCOL_DEFINITION ( 'international standard', 'config_control_design', 1994, #51 ) ;
#159 = FACE_OUTER_BOUND ( 'NONE', #110, .T. ) ;
#160 =( NAMED_UNIT ( * ) SI_UNIT ( $, .STERADIAN. ) SOLID_ANGLE_UNIT ( ) );
#161 = ORIENTED_EDGE ( 'NONE', *, *, #31, .F. ) ;
#162 = CYLINDRICAL_SURFACE ( 'NONE', #111, 12.69999999999999600 ) ;
#163 = EDGE_CURVE ( 'NONE', #3, #29, #1, .T. ) ;
#164 = ORIENTED_EDGE ( 'NONE', *, *, #97, .F. ) ;
#165 = CC_DESIGN_APPROVAL ( #16, ( #113 ) ) ;
#166 = LOCAL_TIME ( 13, 10, 10.00000000000000000, #28 ) ;
#167 = CARTESIAN_POINT ( 'NONE',  ( 0.0000000000000000000, 0.0000000000000000000, -1.149999999999999900 ) ) ;
#168 = LOCAL_TIME ( 13, 10, 10.00000000000000000, #135 ) ;
#169 = DIRECTION ( 'NONE',  ( -1.000000000000000000, 0.0000000000000000000, 0.0000000000000000000 ) ) ;
#170 = DIRECTION ( 'NONE',  ( 1.000000000000000000, 0.0000000000000000000, -0.0000000000000000000 ) ) ;
#171 = EDGE_LOOP ( 'NONE', ( #22, #126, #20, #63 ) ) ;
#172 = APPLICATION_CONTEXT ( 'configuration controlled 3d designs of mechanical parts and assemblies' ) ;
#173 = DIRECTION ( 'NONE',  ( 0.0000000000000000000, 0.0000000000000000000, 1.000000000000000000 ) ) ;
#174 = VECTOR ( 'NONE', #36, 1000.000000000000000 ) ;
#175 = DIRECTION ( 'NONE',  ( 0.0000000000000000000, 0.0000000000000000000, 1.000000000000000000 ) ) ;
ENDSEC;
END-ISO-10303-21;
