ISO-10303-21;
HEADER;
FILE_DESCRIPTION (( 'STEP AP203' ),
    '1' );
FILE_NAME ('Web Model 46458_15985.step',
    '2020-10-09T14:08:40',
    ( '' ),
    ( '' ),
    'SwSTEP 2.0',
    'SolidWorks 2018',
    '' );
FILE_SCHEMA (( 'CONFIG_CONTROL_DESIGN' ));
ENDSEC;

DATA;
#1 = APPROVAL_STATUS ( 'not_yet_approved' ) ;
#2 = CYLINDRICAL_SURFACE ( 'NONE', #142, 12.69999999999999929 ) ;
#3 = PERSON_AND_ORGANIZATION_ROLE ( 'creator' ) ;
#4 = AXIS2_PLACEMENT_3D ( 'NONE', #65, #164, #103 ) ;
#5 = CC_DESIGN_APPROVAL ( #32, ( #37 ) ) ;
#6 = LOCAL_TIME ( 10, 8, 40.00000000000000000, #104 ) ;
#7 = APPROVAL ( #135, 'UNSPECIFIED' ) ;
#8 = CARTESIAN_POINT ( 'NONE',  ( -0.7500000000000000000, 0.0000000000000000000, 0.0000000000000000000 ) ) ;
#9 = CC_DESIGN_PERSON_AND_ORGANIZATION_ASSIGNMENT ( #133, #3, ( #127 ) ) ;
#10 = APPROVAL_STATUS ( 'not_yet_approved' ) ;
#11 = EDGE_CURVE ( 'NONE', #166, #15, #71, .T. ) ;
#12 = CARTESIAN_POINT ( 'NONE',  ( 0.0000000000000000000, 0.0000000000000000000, 0.0000000000000000000 ) ) ;
#13 = PERSON_AND_ORGANIZATION ( #62, #29 ) ;
#14 = EDGE_LOOP ( 'NONE', ( #28, #129, #50, #73 ) ) ;
#15 = VERTEX_POINT ( 'NONE', #85 ) ;
#16 = ADVANCED_FACE ( 'NONE', ( #94 ), #21, .T. ) ;
#17 = DIRECTION ( 'NONE',  ( 1.000000000000000000, 0.0000000000000000000, 0.0000000000000000000 ) ) ;
#18 = AXIS2_PLACEMENT_3D ( 'NONE', #27, #35, #93 ) ;
#19 = CC_DESIGN_APPROVAL ( #80, ( #154 ) ) ;
#20 = EDGE_CURVE ( 'NONE', #54, #23, #40, .T. ) ;
#21 = CYLINDRICAL_SURFACE ( 'NONE', #171, 12.69999999999999929 ) ;
#22 = EDGE_CURVE ( 'NONE', #15, #166, #108, .T. ) ;
#23 = VERTEX_POINT ( 'NONE', #52 ) ;
#24 = LOCAL_TIME ( 10, 8, 40.00000000000000000, #55 ) ;
#25 = ORIENTED_EDGE ( 'NONE', *, *, #96, .F. ) ;
#26 = CARTESIAN_POINT ( 'NONE',  ( -0.7500000000000000000, 0.0000000000000000000, 0.0000000000000000000 ) ) ;
#27 = CARTESIAN_POINT ( 'NONE',  ( -0.7500000000000000000, 0.0000000000000000000, 0.0000000000000000000 ) ) ;
#28 = ORIENTED_EDGE ( 'NONE', *, *, #22, .F. ) ;
#29 = ORGANIZATION ( 'UNSPECIFIED', 'UNSPECIFIED', '' ) ;
#30 = CALENDAR_DATE ( 2020, 9, 10 ) ;
#31 = CC_DESIGN_DATE_AND_TIME_ASSIGNMENT ( #63, #33, ( #37 ) ) ;
#32 = APPROVAL ( #1, 'UNSPECIFIED' ) ;
#33 = DATE_TIME_ROLE ( 'creation_date' ) ;
#34 = DIRECTION ( 'NONE',  ( -1.000000000000000000, -0.0000000000000000000, -0.0000000000000000000 ) ) ;
#35 = DIRECTION ( 'NONE',  ( 1.000000000000000000, 0.0000000000000000000, 0.0000000000000000000 ) ) ;
#36 = SECURITY_CLASSIFICATION_LEVEL ( 'unclassified' ) ;
#37 = PRODUCT_DEFINITION ( 'UNKNOWN', '', #127, #66 ) ;
#38 = DIRECTION ( 'NONE',  ( 0.0000000000000000000, 0.0000000000000000000, -1.000000000000000000 ) ) ;
#39 = ADVANCED_BREP_SHAPE_REPRESENTATION ( 'Web Model 46458_15985', ( #58, #151 ), #51 ) ;
#40 = CIRCLE ( 'NONE', #134, 12.69999999999999929 ) ;
#41 = COORDINATED_UNIVERSAL_TIME_OFFSET ( 5, 0, .BEHIND. ) ;
#42 = DIRECTION ( 'NONE',  ( 0.0000000000000000000, 0.0000000000000000000, -1.000000000000000000 ) ) ;
#43 = CIRCLE ( 'NONE', #149, 12.69999999999999929 ) ;
#44 = CLOSED_SHELL ( 'NONE', ( #16, #136, #68, #83 ) ) ;
#45 = APPROVAL_PERSON_ORGANIZATION ( #120, #7, #158 ) ;
#46 = CARTESIAN_POINT ( 'NONE',  ( 0.7500000000000000000, 1.555301434917138433E-15, -12.69999999999999929 ) ) ;
#47 = MECHANICAL_CONTEXT ( 'NONE', #118, 'mechanical' ) ;
#48 = VECTOR ( 'NONE', #34, 1000.000000000000000 ) ;
#49 = PERSON_AND_ORGANIZATION_ROLE ( 'design_supplier' ) ;
#50 = ORIENTED_EDGE ( 'NONE', *, *, #124, .T. ) ;
#51 =( GEOMETRIC_REPRESENTATION_CONTEXT ( 3 ) GLOBAL_UNCERTAINTY_ASSIGNED_CONTEXT ( ( #74 ) ) GLOBAL_UNIT_ASSIGNED_CONTEXT ( ( #82, #92, #148 ) ) REPRESENTATION_CONTEXT ( 'NONE', 'WORKASPACE' ) );
#52 = CARTESIAN_POINT ( 'NONE',  ( -0.7500000000000000000, 1.555301434917138433E-15, -12.69999999999999929 ) ) ;
#53 = CARTESIAN_POINT ( 'NONE',  ( 0.7500000000000000000, 0.0000000000000000000, 0.0000000000000000000 ) ) ;
#54 = VERTEX_POINT ( 'NONE', #138 ) ;
#55 = COORDINATED_UNIVERSAL_TIME_OFFSET ( 5, 0, .BEHIND. ) ;
#56 = CC_DESIGN_PERSON_AND_ORGANIZATION_ASSIGNMENT ( #87, #161, ( #147 ) ) ;
#57 = APPROVAL_PERSON_ORGANIZATION ( #152, #80, #102 ) ;
#58 = MANIFOLD_SOLID_BREP ( 'Boss-Extrude1', #44 ) ;
#59 = PLANE ( 'NONE',  #4 ) ;
#60 = DIRECTION ( 'NONE',  ( 1.000000000000000000, 0.0000000000000000000, 0.0000000000000000000 ) ) ;
#61 = CARTESIAN_POINT ( 'NONE',  ( 0.7500000000000000000, 0.0000000000000000000, 12.69999999999999929 ) ) ;
#62 = PERSON ( 'UNSPECIFIED', 'UNSPECIFIED', 'UNSPECIFIED', ('UNSPECIFIED'), ('UNSPECIFIED'), ('UNSPECIFIED') ) ;
#63 = DATE_AND_TIME ( #101, #6 ) ;
#64 = APPLICATION_CONTEXT ( 'configuration controlled 3d designs of mechanical parts and assemblies' ) ;
#65 = CARTESIAN_POINT ( 'NONE',  ( 0.7500000000000000000, 0.0000000000000000000, 0.0000000000000000000 ) ) ;
#66 = DESIGN_CONTEXT ( 'detailed design', #64, 'design' ) ;
#67 = CC_DESIGN_PERSON_AND_ORGANIZATION_ASSIGNMENT ( #86, #49, ( #127 ) ) ;
#68 = ADVANCED_FACE ( 'NONE', ( #91 ), #59, .T. ) ;
#69 = APPROVAL_PERSON_ORGANIZATION ( #167, #32, #106 ) ;
#70 = ORIENTED_EDGE ( 'NONE', *, *, #11, .F. ) ;
#71 = CIRCLE ( 'NONE', #125, 12.69999999999999929 ) ;
#72 = PERSON_AND_ORGANIZATION ( #62, #29 ) ;
#73 = ORIENTED_EDGE ( 'NONE', *, *, #117, .F. ) ;
#74 = UNCERTAINTY_MEASURE_WITH_UNIT (LENGTH_MEASURE( 1.000000000000000082E-05 ), #82, 'distance_accuracy_value', 'NONE');
#75 = CC_DESIGN_PERSON_AND_ORGANIZATION_ASSIGNMENT ( #72, #173, ( #37 ) ) ;
#76 = PERSON_AND_ORGANIZATION_ROLE ( 'classification_officer' ) ;
#77 = ORIENTED_EDGE ( 'NONE', *, *, #124, .F. ) ;
#78 = DIRECTION ( 'NONE',  ( 0.0000000000000000000, 0.0000000000000000000, 1.000000000000000000 ) ) ;
#79 = LINE ( 'NONE', #46, #155 ) ;
#80 = APPROVAL ( #10, 'UNSPECIFIED' ) ;
#81 = DIRECTION ( 'NONE',  ( -1.000000000000000000, -0.0000000000000000000, -0.0000000000000000000 ) ) ;
#82 =( LENGTH_UNIT ( ) NAMED_UNIT ( * ) SI_UNIT ( .MILLI., .METRE. ) );
#83 = ADVANCED_FACE ( 'NONE', ( #116 ), #174, .F. ) ;
#84 = CC_DESIGN_PERSON_AND_ORGANIZATION_ASSIGNMENT ( #13, #76, ( #154 ) ) ;
#85 = CARTESIAN_POINT ( 'NONE',  ( 0.7500000000000000000, 1.555301434917138433E-15, -12.69999999999999929 ) ) ;
#86 = PERSON_AND_ORGANIZATION ( #62, #29 ) ;
#87 = PERSON_AND_ORGANIZATION ( #62, #29 ) ;
#88 = DATE_TIME_ROLE ( 'classification_date' ) ;
#89 = AXIS2_PLACEMENT_3D ( 'NONE', #163, #146, #42 ) ;
#90 = DIRECTION ( 'NONE',  ( 1.000000000000000000, 0.0000000000000000000, 0.0000000000000000000 ) ) ;
#91 = FACE_OUTER_BOUND ( 'NONE', #170, .T. ) ;
#92 =( NAMED_UNIT ( * ) PLANE_ANGLE_UNIT ( ) SI_UNIT ( $, .RADIAN. ) );
#93 = DIRECTION ( 'NONE',  ( 0.0000000000000000000, 0.0000000000000000000, -1.000000000000000000 ) ) ;
#94 = FACE_OUTER_BOUND ( 'NONE', #14, .T. ) ;
#95 = EDGE_LOOP ( 'NONE', ( #25, #70, #123, #160 ) ) ;
#96 = EDGE_CURVE ( 'NONE', #15, #23, #79, .T. ) ;
#97 = DIRECTION ( 'NONE',  ( 0.0000000000000000000, 0.0000000000000000000, -1.000000000000000000 ) ) ;
#98 = CALENDAR_DATE ( 2020, 9, 10 ) ;
#99 = DIRECTION ( 'NONE',  ( 0.0000000000000000000, 0.0000000000000000000, 1.000000000000000000 ) ) ;
#100 = FACE_OUTER_BOUND ( 'NONE', #95, .T. ) ;
#101 = CALENDAR_DATE ( 2020, 9, 10 ) ;
#102 = APPROVAL_ROLE ( '' ) ;
#103 = DIRECTION ( 'NONE',  ( 0.0000000000000000000, 0.0000000000000000000, -1.000000000000000000 ) ) ;
#104 = COORDINATED_UNIVERSAL_TIME_OFFSET ( 5, 0, .BEHIND. ) ;
#105 = APPLICATION_PROTOCOL_DEFINITION ( 'international standard', 'config_control_design', 1994, #118 ) ;
#106 = APPROVAL_ROLE ( '' ) ;
#107 = CARTESIAN_POINT ( 'NONE',  ( 0.7500000000000000000, 0.0000000000000000000, 0.0000000000000000000 ) ) ;
#108 = CIRCLE ( 'NONE', #89, 12.69999999999999929 ) ;
#109 = DATE_AND_TIME ( #159, #144 ) ;
#110 = ORIENTED_EDGE ( 'NONE', *, *, #20, .F. ) ;
#111 = DIRECTION ( 'NONE',  ( 1.000000000000000000, 0.0000000000000000000, 0.0000000000000000000 ) ) ;
#112 = DIRECTION ( 'NONE',  ( -1.000000000000000000, -0.0000000000000000000, -0.0000000000000000000 ) ) ;
#113 = EDGE_LOOP ( 'NONE', ( #110, #77 ) ) ;
#114 = CC_DESIGN_SECURITY_CLASSIFICATION ( #154, ( #127 ) ) ;
#115 = APPROVAL_DATE_TIME ( #131, #80 ) ;
#116 = FACE_OUTER_BOUND ( 'NONE', #113, .T. ) ;
#117 = EDGE_CURVE ( 'NONE', #166, #54, #139, .T. ) ;
#118 = APPLICATION_CONTEXT ( 'configuration controlled 3d designs of mechanical parts and assemblies' ) ;
#119 = CARTESIAN_POINT ( 'NONE',  ( 0.7500000000000000000, 0.0000000000000000000, 12.69999999999999929 ) ) ;
#120 = PERSON_AND_ORGANIZATION ( #62, #29 ) ;
#121 = APPLICATION_PROTOCOL_DEFINITION ( 'international standard', 'config_control_design', 1994, #64 ) ;
#122 = LOCAL_TIME ( 10, 8, 40.00000000000000000, #150 ) ;
#123 = ORIENTED_EDGE ( 'NONE', *, *, #117, .T. ) ;
#124 = EDGE_CURVE ( 'NONE', #23, #54, #43, .T. ) ;
#125 = AXIS2_PLACEMENT_3D ( 'NONE', #169, #111, #38 ) ;
#126 = SHAPE_DEFINITION_REPRESENTATION ( #157, #39 ) ;
#127 = PRODUCT_DEFINITION_FORMATION_WITH_SPECIFIED_SOURCE ( 'ANY', '', #147, .NOT_KNOWN. ) ;
#128 = APPROVAL_DATE_TIME ( #172, #7 ) ;
#129 = ORIENTED_EDGE ( 'NONE', *, *, #96, .T. ) ;
#130 = CC_DESIGN_DATE_AND_TIME_ASSIGNMENT ( #153, #88, ( #154 ) ) ;
#131 = DATE_AND_TIME ( #165, #24 ) ;
#132 = DIRECTION ( 'NONE',  ( 0.0000000000000000000, 0.0000000000000000000, -1.000000000000000000 ) ) ;
#133 = PERSON_AND_ORGANIZATION ( #62, #29 ) ;
#134 = AXIS2_PLACEMENT_3D ( 'NONE', #8, #17, #97 ) ;
#135 = APPROVAL_STATUS ( 'not_yet_approved' ) ;
#136 = ADVANCED_FACE ( 'NONE', ( #100 ), #2, .T. ) ;
#137 = CC_DESIGN_APPROVAL ( #7, ( #127 ) ) ;
#138 = CARTESIAN_POINT ( 'NONE',  ( -0.7500000000000000000, 0.0000000000000000000, 12.69999999999999929 ) ) ;
#139 = LINE ( 'NONE', #61, #48 ) ;
#140 = ORIENTED_EDGE ( 'NONE', *, *, #22, .T. ) ;
#141 = COORDINATED_UNIVERSAL_TIME_OFFSET ( 5, 0, .BEHIND. ) ;
#142 = AXIS2_PLACEMENT_3D ( 'NONE', #107, #162, #78 ) ;
#143 = DIRECTION ( 'NONE',  ( 0.0000000000000000000, 0.0000000000000000000, 1.000000000000000000 ) ) ;
#144 = LOCAL_TIME ( 10, 8, 40.00000000000000000, #141 ) ;
#145 = PRODUCT_RELATED_PRODUCT_CATEGORY ( 'detail', '', ( #147 ) ) ;
#146 = DIRECTION ( 'NONE',  ( 1.000000000000000000, 0.0000000000000000000, 0.0000000000000000000 ) ) ;
#147 = PRODUCT ( 'Web Model 46458_15985', 'Web Model 46458_15985', '', ( #47 ) ) ;
#148 =( NAMED_UNIT ( * ) SI_UNIT ( $, .STERADIAN. ) SOLID_ANGLE_UNIT ( ) );
#149 = AXIS2_PLACEMENT_3D ( 'NONE', #26, #90, #132 ) ;
#150 = COORDINATED_UNIVERSAL_TIME_OFFSET ( 5, 0, .BEHIND. ) ;
#151 = AXIS2_PLACEMENT_3D ( 'NONE', #12, #143, #60 ) ;
#152 = PERSON_AND_ORGANIZATION ( #62, #29 ) ;
#153 = DATE_AND_TIME ( #98, #122 ) ;
#154 = SECURITY_CLASSIFICATION ( '', '', #36 ) ;
#155 = VECTOR ( 'NONE', #81, 1000.000000000000000 ) ;
#156 = APPROVAL_DATE_TIME ( #109, #32 ) ;
#157 = PRODUCT_DEFINITION_SHAPE ( 'NONE', 'NONE',  #37 ) ;
#158 = APPROVAL_ROLE ( '' ) ;
#159 = CALENDAR_DATE ( 2020, 9, 10 ) ;
#160 = ORIENTED_EDGE ( 'NONE', *, *, #20, .T. ) ;
#161 = PERSON_AND_ORGANIZATION_ROLE ( 'design_owner' ) ;
#162 = DIRECTION ( 'NONE',  ( -1.000000000000000000, -0.0000000000000000000, -0.0000000000000000000 ) ) ;
#163 = CARTESIAN_POINT ( 'NONE',  ( 0.7500000000000000000, 0.0000000000000000000, 0.0000000000000000000 ) ) ;
#164 = DIRECTION ( 'NONE',  ( 1.000000000000000000, 0.0000000000000000000, 0.0000000000000000000 ) ) ;
#165 = CALENDAR_DATE ( 2020, 9, 10 ) ;
#166 = VERTEX_POINT ( 'NONE', #119 ) ;
#167 = PERSON_AND_ORGANIZATION ( #62, #29 ) ;
#168 = ORIENTED_EDGE ( 'NONE', *, *, #11, .T. ) ;
#169 = CARTESIAN_POINT ( 'NONE',  ( 0.7500000000000000000, 0.0000000000000000000, 0.0000000000000000000 ) ) ;
#170 = EDGE_LOOP ( 'NONE', ( #168, #140 ) ) ;
#171 = AXIS2_PLACEMENT_3D ( 'NONE', #53, #112, #99 ) ;
#172 = DATE_AND_TIME ( #30, #175 ) ;
#173 = PERSON_AND_ORGANIZATION_ROLE ( 'creator' ) ;
#174 = PLANE ( 'NONE',  #18 ) ;
#175 = LOCAL_TIME ( 10, 8, 40.00000000000000000, #41 ) ;
ENDSEC;
END-ISO-10303-21;
