ISO-10303-21;
HEADER;
FILE_DESCRIPTION (( 'STEP AP203' ),
    '1' );
FILE_NAME ('Web Model 64397MX_43739.step',
    '2017-10-30T12:59:43',
    ( '' ),
    ( '' ),
    'SwSTEP 2.0',
    'SolidWorks 2016',
    '' );
FILE_SCHEMA (( 'CONFIG_CONTROL_DESIGN' ));
ENDSEC;

DATA;
#1 = LINE ( 'NONE', #56, #218 ) ;
#2 = PLANE ( 'NONE',  #217 ) ;
#3 = ORIENTED_EDGE ( 'NONE', *, *, #177, .T. ) ;
#4 = CARTESIAN_POINT ( 'NONE',  ( -6.350000000000000500, 6.349999999999998800, 3.000000000000000000 ) ) ;
#5 = APPROVAL_DATE_TIME ( #89, #152 ) ;
#6 = DIRECTION ( 'NONE',  ( 0.0000000000000000000, 0.0000000000000000000, 1.000000000000000000 ) ) ;
#7 = EDGE_CURVE ( 'NONE', #149, #179, #154, .T. ) ;
#8 = LINE ( 'NONE', #176, #231 ) ;
#9 = VERTEX_POINT ( 'NONE', #31 ) ;
#10 = SECURITY_CLASSIFICATION ( '', '', #182 ) ;
#11 = ORIENTED_EDGE ( 'NONE', *, *, #93, .T. ) ;
#12 = DATE_AND_TIME ( #170, #173 ) ;
#13 = LOCAL_TIME ( 8, 59, 43.00000000000000000, #97 ) ;
#14 = ORIENTED_EDGE ( 'NONE', *, *, #137, .T. ) ;
#15 = CARTESIAN_POINT ( 'NONE',  ( 6.349999999999998800, -6.349999999999998800, 3.000000000000000000 ) ) ;
#16 = DIRECTION ( 'NONE',  ( 0.0000000000000000000, -0.0000000000000000000, 1.000000000000000000 ) ) ;
#17 = DIRECTION ( 'NONE',  ( -0.0000000000000000000, -0.0000000000000000000, -1.000000000000000000 ) ) ;
#18 = DIRECTION ( 'NONE',  ( 1.000000000000000000, 0.0000000000000000000, -0.0000000000000000000 ) ) ;
#19 = VERTEX_POINT ( 'NONE', #118 ) ;
#20 = DIRECTION ( 'NONE',  ( -0.0000000000000000000, -1.000000000000000000, -0.0000000000000000000 ) ) ;
#21 = CARTESIAN_POINT ( 'NONE',  ( 6.349999999999998800, -6.349999999999998800, -3.000000000000000000 ) ) ;
#22 = FACE_OUTER_BOUND ( 'NONE', #200, .T. ) ;
#23 = ADVANCED_FACE ( 'NONE', ( #27 ), #32, .T. ) ;
#24 = PERSON_AND_ORGANIZATION_ROLE ( 'creator' ) ;
#25 = APPLICATION_CONTEXT ( 'configuration controlled 3d designs of mechanical parts and assemblies' ) ;
#26 = APPLICATION_CONTEXT ( 'configuration controlled 3d designs of mechanical parts and assemblies' ) ;
#27 = FACE_OUTER_BOUND ( 'NONE', #232, .T. ) ;
#28 = PERSON_AND_ORGANIZATION ( #214, #64 ) ;
#29 = DESIGN_CONTEXT ( 'detailed design', #26, 'design' ) ;
#30 = AXIS2_PLACEMENT_3D ( 'NONE', #104, #201, #35 ) ;
#31 = CARTESIAN_POINT ( 'NONE',  ( -6.350000000000000500, -6.350000000000000500, 3.000000000000000000 ) ) ;
#32 = PLANE ( 'NONE',  #128 ) ;
#33 = LINE ( 'NONE', #157, #54 ) ;
#34 = EDGE_CURVE ( 'NONE', #162, #190, #212, .T. ) ;
#35 = DIRECTION ( 'NONE',  ( -1.000000000000000000, -1.365923996832131600E-016, 0.0000000000000000000 ) ) ;
#36 = CARTESIAN_POINT ( 'NONE',  ( 6.349999999999998800, 6.350000000000000500, 3.000000000000000000 ) ) ;
#37 = DIRECTION ( 'NONE',  ( 0.0000000000000000000, -0.0000000000000000000, 1.000000000000000000 ) ) ;
#38 = LINE ( 'NONE', #220, #148 ) ;
#39 = ADVANCED_FACE ( 'NONE', ( #22 ), #161, .F. ) ;
#40 = ORIENTED_EDGE ( 'NONE', *, *, #34, .F. ) ;
#41 = DIRECTION ( 'NONE',  ( 0.0000000000000000000, 0.0000000000000000000, 1.000000000000000000 ) ) ;
#42 = LINE ( 'NONE', #73, #117 ) ;
#43 = PERSON_AND_ORGANIZATION_ROLE ( 'design_owner' ) ;
#44 = PERSON_AND_ORGANIZATION ( #214, #64 ) ;
#45 = CLOSED_SHELL ( 'NONE', ( #127, #205, #187, #39, #23, #95 ) ) ;
#46 = AXIS2_PLACEMENT_3D ( 'NONE', #79, #6, #229 ) ;
#47 = LOCAL_TIME ( 8, 59, 43.00000000000000000, #111 ) ;
#48 = FACE_OUTER_BOUND ( 'NONE', #58, .T. ) ;
#49 = EDGE_CURVE ( 'NONE', #9, #219, #1, .T. ) ;
#50 = CALENDAR_DATE ( 2017, 30, 10 ) ;
#51 = ORIENTED_EDGE ( 'NONE', *, *, #222, .T. ) ;
#52 = PRODUCT ( 'Web Model 64397MX_43739', 'Web Model 64397MX_43739', '', ( #206 ) ) ;
#53 = DIRECTION ( 'NONE',  ( 1.000000000000000000, 0.0000000000000000000, 0.0000000000000000000 ) ) ;
#54 = VECTOR ( 'NONE', #204, 1000.000000000000000 ) ;
#55 = CARTESIAN_POINT ( 'NONE',  ( -6.350000000000000500, -6.350000000000000500, 3.000000000000000000 ) ) ;
#56 = CARTESIAN_POINT ( 'NONE',  ( -6.350000000000000500, -6.350000000000000500, 3.000000000000000000 ) ) ;
#57 = CC_DESIGN_APPROVAL ( #195, ( #10 ) ) ;
#58 = EDGE_LOOP ( 'NONE', ( #210, #107, #61, #131 ) ) ;
#59 = APPROVAL_ROLE ( '' ) ;
#60 = DATE_AND_TIME ( #50, #96 ) ;
#61 = ORIENTED_EDGE ( 'NONE', *, *, #211, .F. ) ;
#62 = PRODUCT_DEFINITION_FORMATION_WITH_SPECIFIED_SOURCE ( 'ANY', '', #52, .NOT_KNOWN. ) ;
#63 = ORIENTED_EDGE ( 'NONE', *, *, #125, .T. ) ;
#64 = ORGANIZATION ( 'UNSPECIFIED', 'UNSPECIFIED', '' ) ;
#65 = ORIENTED_EDGE ( 'NONE', *, *, #177, .F. ) ;
#66 = COORDINATED_UNIVERSAL_TIME_OFFSET ( 5, 0, .BEHIND. ) ;
#67 = ORIENTED_EDGE ( 'NONE', *, *, #103, .T. ) ;
#68 = CARTESIAN_POINT ( 'NONE',  ( 0.0000000000000000000, 0.0000000000000000000, 3.000000000000000000 ) ) ;
#69 = CARTESIAN_POINT ( 'NONE',  ( 6.349999999999998800, -6.349999999999998800, 3.000000000000000000 ) ) ;
#70 = VECTOR ( 'NONE', #85, 1000.000000000000000 ) ;
#71 = VERTEX_POINT ( 'NONE', #90 ) ;
#72 = CARTESIAN_POINT ( 'NONE',  ( 6.349999999999998800, 6.350000000000000500, -3.000000000000000000 ) ) ;
#73 = CARTESIAN_POINT ( 'NONE',  ( 6.349999999999998800, -6.349999999999998800, 3.000000000000000000 ) ) ;
#74 = CC_DESIGN_SECURITY_CLASSIFICATION ( #10, ( #62 ) ) ;
#75 = CARTESIAN_POINT ( 'NONE',  ( -6.350000000000000500, 6.349999999999998800, 3.000000000000000000 ) ) ;
#76 = ORIENTED_EDGE ( 'NONE', *, *, #103, .F. ) ;
#77 = APPLICATION_PROTOCOL_DEFINITION ( 'international standard', 'config_control_design', 1994, #25 ) ;
#78 = APPROVAL_PERSON_ORGANIZATION ( #121, #152, #186 ) ;
#79 = CARTESIAN_POINT ( 'NONE',  ( 0.0000000000000000000, 0.0000000000000000000, 0.0000000000000000000 ) ) ;
#80 = DATE_AND_TIME ( #224, #208 ) ;
#81 = VECTOR ( 'NONE', #20, 1000.000000000000000 ) ;
#82 = ORIENTED_EDGE ( 'NONE', *, *, #7, .F. ) ;
#83 = CC_DESIGN_DATE_AND_TIME_ASSIGNMENT ( #12, #163, ( #10 ) ) ;
#84 = LINE ( 'NONE', #140, #185 ) ;
#85 = DIRECTION ( 'NONE',  ( -0.0000000000000000000, -0.0000000000000000000, -1.000000000000000000 ) ) ;
#86 = DIRECTION ( 'NONE',  ( 1.000000000000000000, 1.365923996832131600E-016, -0.0000000000000000000 ) ) ;
#87 = CC_DESIGN_PERSON_AND_ORGANIZATION_ASSIGNMENT ( #153, #43, ( #52 ) ) ;
#88 = DIRECTION ( 'NONE',  ( 1.000000000000000000, 1.365923996832131600E-016, 0.0000000000000000000 ) ) ;
#89 = DATE_AND_TIME ( #199, #13 ) ;
#90 = CARTESIAN_POINT ( 'NONE',  ( 6.349999999999998800, 6.350000000000000500, -3.000000000000000000 ) ) ;
#91 = APPLICATION_PROTOCOL_DEFINITION ( 'international standard', 'config_control_design', 1994, #26 ) ;
#92 = LINE ( 'NONE', #21, #165 ) ;
#93 = EDGE_CURVE ( 'NONE', #219, #179, #92, .T. ) ;
#94 = PERSON_AND_ORGANIZATION_ROLE ( 'design_supplier' ) ;
#95 = ADVANCED_FACE ( 'NONE', ( #130 ), #2, .F. ) ;
#96 = LOCAL_TIME ( 8, 59, 43.00000000000000000, #105 ) ;
#97 = COORDINATED_UNIVERSAL_TIME_OFFSET ( 5, 0, .BEHIND. ) ;
#98 = CC_DESIGN_APPROVAL ( #152, ( #62 ) ) ;
#99 = FACE_OUTER_BOUND ( 'NONE', #194, .T. ) ;
#100 = ORIENTED_EDGE ( 'NONE', *, *, #167, .F. ) ;
#101 = UNCERTAINTY_MEASURE_WITH_UNIT (LENGTH_MEASURE( 1.000000000000000100E-005 ), #113, 'distance_accuracy_value', 'NONE');
#102 = PRODUCT_DEFINITION ( 'UNKNOWN', '', #62, #29 ) ;
#103 = EDGE_CURVE ( 'NONE', #149, #19, #33, .T. ) ;
#104 = CARTESIAN_POINT ( 'NONE',  ( 6.349999999999998800, -6.349999999999998800, 3.000000000000000000 ) ) ;
#105 = COORDINATED_UNIVERSAL_TIME_OFFSET ( 5, 0, .BEHIND. ) ;
#106 = DIRECTION ( 'NONE',  ( 1.000000000000000000, 0.0000000000000000000, -0.0000000000000000000 ) ) ;
#107 = ORIENTED_EDGE ( 'NONE', *, *, #49, .F. ) ;
#108 = PLANE ( 'NONE',  #30 ) ;
#109 = ADVANCED_BREP_SHAPE_REPRESENTATION ( 'Web Model 64397MX_43739', ( #142, #46 ), #169 ) ;
#110 = DATE_TIME_ROLE ( 'creation_date' ) ;
#111 = COORDINATED_UNIVERSAL_TIME_OFFSET ( 5, 0, .BEHIND. ) ;
#112 = APPROVAL_PERSON_ORGANIZATION ( #198, #195, #226 ) ;
#113 =( LENGTH_UNIT ( ) NAMED_UNIT ( * ) SI_UNIT ( .MILLI., .METRE. ) );
#114 = FACE_OUTER_BOUND ( 'NONE', #122, .T. ) ;
#115 = ORIENTED_EDGE ( 'NONE', *, *, #137, .F. ) ;
#116 = DATE_AND_TIME ( #184, #47 ) ;
#117 = VECTOR ( 'NONE', #86, 1000.000000000000000 ) ;
#118 = CARTESIAN_POINT ( 'NONE',  ( 6.349999999999998800, 6.350000000000000500, 3.000000000000000000 ) ) ;
#119 = ORIENTED_EDGE ( 'NONE', *, *, #156, .T. ) ;
#120 = CARTESIAN_POINT ( 'NONE',  ( 0.0000000000000000000, 0.0000000000000000000, -3.000000000000000000 ) ) ;
#121 = PERSON_AND_ORGANIZATION ( #214, #64 ) ;
#122 = EDGE_LOOP ( 'NONE', ( #11, #82, #115, #213 ) ) ;
#123 = CARTESIAN_POINT ( 'NONE',  ( 6.349999999999998800, -6.349999999999998800, 3.000000000000000000 ) ) ;
#124 = CARTESIAN_POINT ( 'NONE',  ( 6.349999999999998800, 6.350000000000000500, 3.000000000000000000 ) ) ;
#125 = EDGE_CURVE ( 'NONE', #179, #71, #84, .T. ) ;
#126 = APPROVAL_STATUS ( 'not_yet_approved' ) ;
#127 = ADVANCED_FACE ( 'NONE', ( #48 ), #159, .F. ) ;
#128 = AXIS2_PLACEMENT_3D ( 'NONE', #68, #16, #106 ) ;
#129 = PERSON_AND_ORGANIZATION ( #214, #64 ) ;
#130 = FACE_OUTER_BOUND ( 'NONE', #155, .T. ) ;
#131 = ORIENTED_EDGE ( 'NONE', *, *, #34, .T. ) ;
#132 = CC_DESIGN_PERSON_AND_ORGANIZATION_ASSIGNMENT ( #28, #207, ( #62 ) ) ;
#133 = VECTOR ( 'NONE', #17, 1000.000000000000000 ) ;
#134 = APPROVAL ( #164, 'UNSPECIFIED' ) ;
#135 = DIRECTION ( 'NONE',  ( -0.0000000000000000000, -0.0000000000000000000, -1.000000000000000000 ) ) ;
#136 = COORDINATED_UNIVERSAL_TIME_OFFSET ( 5, 0, .BEHIND. ) ;
#137 = EDGE_CURVE ( 'NONE', #9, #149, #42, .T. ) ;
#138 = AXIS2_PLACEMENT_3D ( 'NONE', #180, #53, #225 ) ;
#139 = PERSON_AND_ORGANIZATION ( #214, #64 ) ;
#140 = CARTESIAN_POINT ( 'NONE',  ( 6.349999999999998800, -6.349999999999998800, -3.000000000000000000 ) ) ;
#141 = DIRECTION ( 'NONE',  ( 1.365923996832131600E-016, -1.000000000000000000, 0.0000000000000000000 ) ) ;
#142 = MANIFOLD_SOLID_BREP ( 'Boss-Extrude1', #45 ) ;
#143 = CARTESIAN_POINT ( 'NONE',  ( -6.350000000000000500, 6.349999999999998800, -3.000000000000000000 ) ) ;
#144 = DIRECTION ( 'NONE',  ( 0.0000000000000000000, 1.000000000000000000, 0.0000000000000000000 ) ) ;
#145 = ORIENTED_EDGE ( 'NONE', *, *, #7, .T. ) ;
#146 = APPROVAL_STATUS ( 'not_yet_approved' ) ;
#147 =( NAMED_UNIT ( * ) PLANE_ANGLE_UNIT ( ) SI_UNIT ( $, .RADIAN. ) );
#148 = VECTOR ( 'NONE', #203, 1000.000000000000000 ) ;
#149 = VERTEX_POINT ( 'NONE', #69 ) ;
#150 = ORIENTED_EDGE ( 'NONE', *, *, #125, .F. ) ;
#151 = AXIS2_PLACEMENT_3D ( 'NONE', #36, #141, #88 ) ;
#152 = APPROVAL ( #146, 'UNSPECIFIED' ) ;
#153 = PERSON_AND_ORGANIZATION ( #214, #64 ) ;
#154 = LINE ( 'NONE', #15, #168 ) ;
#155 = EDGE_LOOP ( 'NONE', ( #100, #65, #150, #216 ) ) ;
#156 = EDGE_CURVE ( 'NONE', #19, #71, #178, .T. ) ;
#157 = CARTESIAN_POINT ( 'NONE',  ( 6.349999999999998800, -6.349999999999998800, 3.000000000000000000 ) ) ;
#158 = SHAPE_DEFINITION_REPRESENTATION ( #160, #109 ) ;
#159 = PLANE ( 'NONE',  #138 ) ;
#160 = PRODUCT_DEFINITION_SHAPE ( 'NONE', 'NONE',  #102 ) ;
#161 = PLANE ( 'NONE',  #151 ) ;
#162 = VERTEX_POINT ( 'NONE', #4 ) ;
#163 = DATE_TIME_ROLE ( 'classification_date' ) ;
#164 = APPROVAL_STATUS ( 'not_yet_approved' ) ;
#165 = VECTOR ( 'NONE', #174, 1000.000000000000000 ) ;
#166 = ORIENTED_EDGE ( 'NONE', *, *, #211, .T. ) ;
#167 = EDGE_CURVE ( 'NONE', #190, #219, #38, .T. ) ;
#168 = VECTOR ( 'NONE', #135, 1000.000000000000000 ) ;
#169 =( GEOMETRIC_REPRESENTATION_CONTEXT ( 3 ) GLOBAL_UNCERTAINTY_ASSIGNED_CONTEXT ( ( #101 ) ) GLOBAL_UNIT_ASSIGNED_CONTEXT ( ( #113, #147, #183 ) ) REPRESENTATION_CONTEXT ( 'NONE', 'WORKASPACE' ) );
#170 = CALENDAR_DATE ( 2017, 30, 10 ) ;
#171 = PERSON_AND_ORGANIZATION ( #214, #64 ) ;
#172 = VECTOR ( 'NONE', #197, 1000.000000000000000 ) ;
#173 = LOCAL_TIME ( 8, 59, 43.00000000000000000, #66 ) ;
#174 = DIRECTION ( 'NONE',  ( 1.000000000000000000, 1.365923996832131600E-016, -0.0000000000000000000 ) ) ;
#175 = PLANE ( 'NONE',  #193 ) ;
#176 = CARTESIAN_POINT ( 'NONE',  ( 6.349999999999998800, 6.350000000000000500, 3.000000000000000000 ) ) ;
#177 = EDGE_CURVE ( 'NONE', #71, #190, #192, .T. ) ;
#178 = LINE ( 'NONE', #124, #70 ) ;
#179 = VERTEX_POINT ( 'NONE', #223 ) ;
#180 = CARTESIAN_POINT ( 'NONE',  ( -6.350000000000000500, -6.350000000000000500, 3.000000000000000000 ) ) ;
#181 = CC_DESIGN_DATE_AND_TIME_ASSIGNMENT ( #60, #110, ( #102 ) ) ;
#182 = SECURITY_CLASSIFICATION_LEVEL ( 'unclassified' ) ;
#183 =( NAMED_UNIT ( * ) SI_UNIT ( $, .STERADIAN. ) SOLID_ANGLE_UNIT ( ) );
#184 = CALENDAR_DATE ( 2017, 30, 10 ) ;
#185 = VECTOR ( 'NONE', #144, 1000.000000000000000 ) ;
#186 = APPROVAL_ROLE ( '' ) ;
#187 = ADVANCED_FACE ( 'NONE', ( #99 ), #175, .F. ) ;
#188 = CC_DESIGN_APPROVAL ( #134, ( #102 ) ) ;
#189 = APPROVAL_PERSON_ORGANIZATION ( #129, #134, #59 ) ;
#190 = VERTEX_POINT ( 'NONE', #143 ) ;
#191 = APPROVAL_DATE_TIME ( #116, #195 ) ;
#192 = LINE ( 'NONE', #72, #172 ) ;
#193 = AXIS2_PLACEMENT_3D ( 'NONE', #123, #237, #41 ) ;
#194 = EDGE_LOOP ( 'NONE', ( #63, #234, #76, #145 ) ) ;
#195 = APPROVAL ( #126, 'UNSPECIFIED' ) ;
#196 = ORIENTED_EDGE ( 'NONE', *, *, #222, .F. ) ;
#197 = DIRECTION ( 'NONE',  ( -1.000000000000000000, -1.365923996832131600E-016, 0.0000000000000000000 ) ) ;
#198 = PERSON_AND_ORGANIZATION ( #214, #64 ) ;
#199 = CALENDAR_DATE ( 2017, 30, 10 ) ;
#200 = EDGE_LOOP ( 'NONE', ( #3, #40, #196, #119 ) ) ;
#201 = DIRECTION ( 'NONE',  ( -1.365923996832131600E-016, 1.000000000000000000, 0.0000000000000000000 ) ) ;
#202 = CC_DESIGN_PERSON_AND_ORGANIZATION_ASSIGNMENT ( #171, #24, ( #102 ) ) ;
#203 = DIRECTION ( 'NONE',  ( -0.0000000000000000000, -1.000000000000000000, -0.0000000000000000000 ) ) ;
#204 = DIRECTION ( 'NONE',  ( 0.0000000000000000000, 1.000000000000000000, 0.0000000000000000000 ) ) ;
#205 = ADVANCED_FACE ( 'NONE', ( #114 ), #108, .F. ) ;
#206 = MECHANICAL_CONTEXT ( 'NONE', #25, 'mechanical' ) ;
#207 = PERSON_AND_ORGANIZATION_ROLE ( 'creator' ) ;
#208 = LOCAL_TIME ( 8, 59, 43.00000000000000000, #136 ) ;
#209 = CARTESIAN_POINT ( 'NONE',  ( -6.350000000000000500, -6.350000000000000500, -3.000000000000000000 ) ) ;
#210 = ORIENTED_EDGE ( 'NONE', *, *, #167, .T. ) ;
#211 = EDGE_CURVE ( 'NONE', #162, #9, #236, .T. ) ;
#212 = LINE ( 'NONE', #75, #133 ) ;
#213 = ORIENTED_EDGE ( 'NONE', *, *, #49, .T. ) ;
#214 = PERSON ( 'UNSPECIFIED', 'UNSPECIFIED', 'UNSPECIFIED', ('UNSPECIFIED'), ('UNSPECIFIED'), ('UNSPECIFIED') ) ;
#215 = CC_DESIGN_PERSON_AND_ORGANIZATION_ASSIGNMENT ( #139, #227, ( #10 ) ) ;
#216 = ORIENTED_EDGE ( 'NONE', *, *, #93, .F. ) ;
#217 = AXIS2_PLACEMENT_3D ( 'NONE', #120, #37, #18 ) ;
#218 = VECTOR ( 'NONE', #221, 1000.000000000000000 ) ;
#219 = VERTEX_POINT ( 'NONE', #209 ) ;
#220 = CARTESIAN_POINT ( 'NONE',  ( -6.350000000000000500, -6.350000000000000500, -3.000000000000000000 ) ) ;
#221 = DIRECTION ( 'NONE',  ( -0.0000000000000000000, -0.0000000000000000000, -1.000000000000000000 ) ) ;
#222 = EDGE_CURVE ( 'NONE', #19, #162, #8, .T. ) ;
#223 = CARTESIAN_POINT ( 'NONE',  ( 6.349999999999998800, -6.349999999999998800, -3.000000000000000000 ) ) ;
#224 = CALENDAR_DATE ( 2017, 30, 10 ) ;
#225 = DIRECTION ( 'NONE',  ( 0.0000000000000000000, 0.0000000000000000000, -1.000000000000000000 ) ) ;
#226 = APPROVAL_ROLE ( '' ) ;
#227 = PERSON_AND_ORGANIZATION_ROLE ( 'classification_officer' ) ;
#228 = DIRECTION ( 'NONE',  ( -1.000000000000000000, -1.365923996832131600E-016, 0.0000000000000000000 ) ) ;
#229 = DIRECTION ( 'NONE',  ( 1.000000000000000000, 0.0000000000000000000, 0.0000000000000000000 ) ) ;
#230 = PRODUCT_RELATED_PRODUCT_CATEGORY ( 'detail', '', ( #52 ) ) ;
#231 = VECTOR ( 'NONE', #228, 1000.000000000000000 ) ;
#232 = EDGE_LOOP ( 'NONE', ( #166, #14, #67, #51 ) ) ;
#233 = APPROVAL_DATE_TIME ( #80, #134 ) ;
#234 = ORIENTED_EDGE ( 'NONE', *, *, #156, .F. ) ;
#235 = CC_DESIGN_PERSON_AND_ORGANIZATION_ASSIGNMENT ( #44, #94, ( #62 ) ) ;
#236 = LINE ( 'NONE', #55, #81 ) ;
#237 = DIRECTION ( 'NONE',  ( -1.000000000000000000, 0.0000000000000000000, 0.0000000000000000000 ) ) ;
ENDSEC;
END-ISO-10303-21;
