ISO-10303-21;
HEADER;
FILE_DESCRIPTION (( 'STEP AP203' ),
    '1' );
FILE_NAME ('Web Model 43368_21005.step',
    '2022-03-16T14:24:08',
    ( '' ),
    ( '' ),
    'SwSTEP 2.0',
    'SolidWorks 2021',
    '' );
FILE_SCHEMA (( 'CONFIG_CONTROL_DESIGN' ));
ENDSEC;

DATA;
#1 = FACE_OUTER_BOUND ( 'NONE', #128, .T. ) ;
#2 = PERSON_AND_ORGANIZATION_ROLE ( 'design_supplier' ) ;
#3 = CLOSED_SHELL ( 'NONE', ( #131, #127, #46, #102 ) ) ;
#4 = AXIS2_PLACEMENT_3D ( 'NONE', #60, #95, #105 ) ;
#5 = DATE_AND_TIME ( #31, #70 ) ;
#6 = COORDINATED_UNIVERSAL_TIME_OFFSET ( 5, 0, .BEHIND. ) ;
#7 = PERSON_AND_ORGANIZATION ( #34, #86 ) ;
#8 = DIRECTION ( 'NONE',  ( 0.000000000000000000, 0.000000000000000000, 1.000000000000000000 ) ) ;
#9 = EDGE_LOOP ( 'NONE', ( #150, #24 ) ) ;
#10 = ORIENTED_EDGE ( 'NONE', *, *, #163, .F. ) ;
#11 = DIRECTION ( 'NONE',  ( 0.000000000000000000, 0.000000000000000000, 1.000000000000000000 ) ) ;
#12 = LOCAL_TIME ( 10, 24, 8.000000000000000000, #6 ) ;
#13 = LOCAL_TIME ( 10, 24, 8.000000000000000000, #125 ) ;
#14 = PLANE ( 'NONE',  #4 ) ;
#15 =( NAMED_UNIT ( * ) SI_UNIT ( $, .STERADIAN. ) SOLID_ANGLE_UNIT ( ) );
#16 = LOCAL_TIME ( 10, 24, 8.000000000000000000, #51 ) ;
#17 = CARTESIAN_POINT ( 'NONE',  ( 0.000000000000000000, 0.000000000000000000, 0.5000000000000000000 ) ) ;
#18 = APPROVAL ( #39, 'UNSPECIFIED' ) ;
#19 = CALENDAR_DATE ( 2022, 16, 3 ) ;
#20 = EDGE_CURVE ( 'NONE', #165, #59, #166, .T. ) ;
#21 = CC_DESIGN_APPROVAL ( #110, ( #162 ) ) ;
#22 = ADVANCED_BREP_SHAPE_REPRESENTATION ( 'Web Model 43368_21005', ( #108, #119 ), #99 ) ;
#23 = CARTESIAN_POINT ( 'NONE',  ( 0.000000000000000000, 0.000000000000000000, 0.000000000000000000 ) ) ;
#24 = ORIENTED_EDGE ( 'NONE', *, *, #174, .T. ) ;
#25 = CYLINDRICAL_SURFACE ( 'NONE', #48, 10.00000000000000000 ) ;
#26 = CC_DESIGN_PERSON_AND_ORGANIZATION_ASSIGNMENT ( #55, #161, ( #107 ) ) ;
#27 =( NAMED_UNIT ( * ) PLANE_ANGLE_UNIT ( ) SI_UNIT ( $, .RADIAN. ) );
#28 = PRODUCT_DEFINITION_SHAPE ( 'NONE', 'NONE',  #164 ) ;
#29 = FACE_OUTER_BOUND ( 'NONE', #129, .T. ) ;
#30 = CARTESIAN_POINT ( 'NONE',  ( 0.000000000000000000, 0.000000000000000000, 0.5000000000000000000 ) ) ;
#31 = CALENDAR_DATE ( 2022, 16, 3 ) ;
#32 = PERSON_AND_ORGANIZATION ( #34, #86 ) ;
#33 = DATE_AND_TIME ( #106, #12 ) ;
#34 = PERSON ( 'UNSPECIFIED', 'UNSPECIFIED', 'UNSPECIFIED', ('UNSPECIFIED'), ('UNSPECIFIED'), ('UNSPECIFIED') ) ;
#35 = CYLINDRICAL_SURFACE ( 'NONE', #145, 10.00000000000000000 ) ;
#36 = APPLICATION_PROTOCOL_DEFINITION ( 'international standard', 'config_control_design', 1994, #91 ) ;
#37 = CARTESIAN_POINT ( 'NONE',  ( -10.00000000000000000, 0.000000000000000000, 0.000000000000000000 ) ) ;
#38 = CC_DESIGN_APPROVAL ( #18, ( #107 ) ) ;
#39 = APPROVAL_STATUS ( 'not_yet_approved' ) ;
#40 = DESIGN_CONTEXT ( 'detailed design', #91, 'design' ) ;
#41 = APPROVAL_ROLE ( '' ) ;
#42 = DIRECTION ( 'NONE',  ( 1.000000000000000000, 0.000000000000000000, 0.000000000000000000 ) ) ;
#43 = CIRCLE ( 'NONE', #155, 10.00000000000000000 ) ;
#44 = ORIENTED_EDGE ( 'NONE', *, *, #117, .T. ) ;
#45 = CARTESIAN_POINT ( 'NONE',  ( 0.000000000000000000, 0.000000000000000000, 0.5000000000000000000 ) ) ;
#46 = ADVANCED_FACE ( 'NONE', ( #113 ), #169, .T. ) ;
#47 = CARTESIAN_POINT ( 'NONE',  ( 0.000000000000000000, 0.000000000000000000, 0.000000000000000000 ) ) ;
#48 = AXIS2_PLACEMENT_3D ( 'NONE', #17, #50, #116 ) ;
#49 = DIRECTION ( 'NONE',  ( -0.000000000000000000, -0.000000000000000000, -1.000000000000000000 ) ) ;
#50 = DIRECTION ( 'NONE',  ( -0.000000000000000000, -0.000000000000000000, -1.000000000000000000 ) ) ;
#51 = COORDINATED_UNIVERSAL_TIME_OFFSET ( 5, 0, .BEHIND. ) ;
#52 = SECURITY_CLASSIFICATION_LEVEL ( 'unclassified' ) ;
#53 = APPROVAL_STATUS ( 'not_yet_approved' ) ;
#54 = CC_DESIGN_DATE_AND_TIME_ASSIGNMENT ( #33, #146, ( #164 ) ) ;
#55 = PERSON_AND_ORGANIZATION ( #34, #86 ) ;
#56 = CIRCLE ( 'NONE', #160, 10.00000000000000000 ) ;
#57 = ORIENTED_EDGE ( 'NONE', *, *, #124, .T. ) ;
#58 = CARTESIAN_POINT ( 'NONE',  ( 10.00000000000000000, 1.224646799147353256E-15, 0.000000000000000000 ) ) ;
#59 = VERTEX_POINT ( 'NONE', #58 ) ;
#60 = CARTESIAN_POINT ( 'NONE',  ( 0.000000000000000000, 0.000000000000000000, 0.000000000000000000 ) ) ;
#61 = FACE_OUTER_BOUND ( 'NONE', #72, .T. ) ;
#62 = UNCERTAINTY_MEASURE_WITH_UNIT (LENGTH_MEASURE( 1.000000000000000082E-05 ), #154, 'distance_accuracy_value', 'NONE');
#63 = APPROVAL_ROLE ( '' ) ;
#64 = PRODUCT ( 'Web Model 43368_21005', 'Web Model 43368_21005', '', ( #173 ) ) ;
#65 = APPROVAL_ROLE ( '' ) ;
#66 = PERSON_AND_ORGANIZATION ( #34, #86 ) ;
#67 = APPROVAL_DATE_TIME ( #5, #110 ) ;
#68 = APPROVAL_PERSON_ORGANIZATION ( #93, #69, #63 ) ;
#69 = APPROVAL ( #78, 'UNSPECIFIED' ) ;
#70 = LOCAL_TIME ( 10, 24, 8.000000000000000000, #122 ) ;
#71 = VERTEX_POINT ( 'NONE', #170 ) ;
#72 = EDGE_LOOP ( 'NONE', ( #87, #10, #57, #151 ) ) ;
#73 = VECTOR ( 'NONE', #143, 1000.000000000000000 ) ;
#74 = DIRECTION ( 'NONE',  ( 0.000000000000000000, 0.000000000000000000, 1.000000000000000000 ) ) ;
#75 = DIRECTION ( 'NONE',  ( 1.000000000000000000, 0.000000000000000000, 0.000000000000000000 ) ) ;
#76 = AXIS2_PLACEMENT_3D ( 'NONE', #47, #101, #75 ) ;
#77 = DIRECTION ( 'NONE',  ( -0.000000000000000000, -0.000000000000000000, -1.000000000000000000 ) ) ;
#78 = APPROVAL_STATUS ( 'not_yet_approved' ) ;
#79 = PERSON_AND_ORGANIZATION ( #34, #86 ) ;
#80 = APPROVAL_DATE_TIME ( #137, #18 ) ;
#81 = CALENDAR_DATE ( 2022, 16, 3 ) ;
#82 = EDGE_CURVE ( 'NONE', #59, #165, #90, .T. ) ;
#83 = VERTEX_POINT ( 'NONE', #132 ) ;
#84 = ORIENTED_EDGE ( 'NONE', *, *, #174, .F. ) ;
#85 = APPLICATION_CONTEXT ( 'configuration controlled 3d designs of mechanical parts and assemblies' ) ;
#86 = ORGANIZATION ( 'UNSPECIFIED', 'UNSPECIFIED', '' ) ;
#87 = ORIENTED_EDGE ( 'NONE', *, *, #117, .F. ) ;
#88 = CC_DESIGN_PERSON_AND_ORGANIZATION_ASSIGNMENT ( #7, #98, ( #164 ) ) ;
#89 = DIRECTION ( 'NONE',  ( 0.000000000000000000, 0.000000000000000000, 1.000000000000000000 ) ) ;
#90 = CIRCLE ( 'NONE', #76, 10.00000000000000000 ) ;
#91 = APPLICATION_CONTEXT ( 'configuration controlled 3d designs of mechanical parts and assemblies' ) ;
#92 = DIRECTION ( 'NONE',  ( 1.000000000000000000, 0.000000000000000000, 0.000000000000000000 ) ) ;
#93 = PERSON_AND_ORGANIZATION ( #34, #86 ) ;
#94 = DIRECTION ( 'NONE',  ( 0.000000000000000000, 0.000000000000000000, 1.000000000000000000 ) ) ;
#95 = DIRECTION ( 'NONE',  ( 0.000000000000000000, 0.000000000000000000, 1.000000000000000000 ) ) ;
#96 = PRODUCT_RELATED_PRODUCT_CATEGORY ( 'detail', '', ( #64 ) ) ;
#97 = PERSON_AND_ORGANIZATION ( #34, #86 ) ;
#98 = PERSON_AND_ORGANIZATION_ROLE ( 'creator' ) ;
#99 =( GEOMETRIC_REPRESENTATION_CONTEXT ( 3 ) GLOBAL_UNCERTAINTY_ASSIGNED_CONTEXT ( ( #62 ) ) GLOBAL_UNIT_ASSIGNED_CONTEXT ( ( #154, #27, #15 ) ) REPRESENTATION_CONTEXT ( 'NONE', 'WORKASPACE' ) );
#100 = APPROVAL_PERSON_ORGANIZATION ( #32, #110, #41 ) ;
#101 = DIRECTION ( 'NONE',  ( 0.000000000000000000, 0.000000000000000000, 1.000000000000000000 ) ) ;
#102 = ADVANCED_FACE ( 'NONE', ( #1 ), #14, .F. ) ;
#103 = LINE ( 'NONE', #142, #73 ) ;
#104 = CARTESIAN_POINT ( 'NONE',  ( 0.000000000000000000, 0.000000000000000000, 0.000000000000000000 ) ) ;
#105 = DIRECTION ( 'NONE',  ( 1.000000000000000000, 0.000000000000000000, -0.000000000000000000 ) ) ;
#106 = CALENDAR_DATE ( 2022, 16, 3 ) ;
#107 = PRODUCT_DEFINITION_FORMATION_WITH_SPECIFIED_SOURCE ( 'ANY', '', #64, .NOT_KNOWN. ) ;
#108 = MANIFOLD_SOLID_BREP ( 'Boss-Extrude1', #3 ) ;
#109 = SHAPE_DEFINITION_REPRESENTATION ( #28, #22 ) ;
#110 = APPROVAL ( #53, 'UNSPECIFIED' ) ;
#111 = COORDINATED_UNIVERSAL_TIME_OFFSET ( 5, 0, .BEHIND. ) ;
#112 = ORIENTED_EDGE ( 'NONE', *, *, #82, .T. ) ;
#113 = FACE_OUTER_BOUND ( 'NONE', #9, .T. ) ;
#114 = ORIENTED_EDGE ( 'NONE', *, *, #82, .F. ) ;
#115 = AXIS2_PLACEMENT_3D ( 'NONE', #23, #8, #42 ) ;
#116 = DIRECTION ( 'NONE',  ( -1.000000000000000000, 0.000000000000000000, 0.000000000000000000 ) ) ;
#117 = EDGE_CURVE ( 'NONE', #71, #59, #135, .T. ) ;
#118 = APPLICATION_PROTOCOL_DEFINITION ( 'international standard', 'config_control_design', 1994, #85 ) ;
#119 = AXIS2_PLACEMENT_3D ( 'NONE', #104, #94, #134 ) ;
#120 = CALENDAR_DATE ( 2022, 16, 3 ) ;
#121 = PERSON_AND_ORGANIZATION ( #34, #86 ) ;
#122 = COORDINATED_UNIVERSAL_TIME_OFFSET ( 5, 0, .BEHIND. ) ;
#123 = DATE_AND_TIME ( #19, #13 ) ;
#124 = EDGE_CURVE ( 'NONE', #83, #165, #103, .T. ) ;
#125 = COORDINATED_UNIVERSAL_TIME_OFFSET ( 5, 0, .BEHIND. ) ;
#126 = APPROVAL_PERSON_ORGANIZATION ( #66, #18, #65 ) ;
#127 = ADVANCED_FACE ( 'NONE', ( #61 ), #35, .T. ) ;
#128 = EDGE_LOOP ( 'NONE', ( #167, #114 ) ) ;
#129 = EDGE_LOOP ( 'NONE', ( #84, #44, #112, #138 ) ) ;
#130 = DIRECTION ( 'NONE',  ( 1.000000000000000000, 0.000000000000000000, -0.000000000000000000 ) ) ;
#131 = ADVANCED_FACE ( 'NONE', ( #29 ), #25, .T. ) ;
#132 = CARTESIAN_POINT ( 'NONE',  ( -10.00000000000000000, 0.000000000000000000, 0.5000000000000000000 ) ) ;
#133 = CARTESIAN_POINT ( 'NONE',  ( 0.000000000000000000, 0.000000000000000000, 0.5000000000000000000 ) ) ;
#134 = DIRECTION ( 'NONE',  ( 1.000000000000000000, 0.000000000000000000, 0.000000000000000000 ) ) ;
#135 = LINE ( 'NONE', #139, #148 ) ;
#136 = PERSON_AND_ORGANIZATION_ROLE ( 'classification_officer' ) ;
#137 = DATE_AND_TIME ( #81, #141 ) ;
#138 = ORIENTED_EDGE ( 'NONE', *, *, #124, .F. ) ;
#139 = CARTESIAN_POINT ( 'NONE',  ( 10.00000000000000000, 1.224646799147353256E-15, 0.5000000000000000000 ) ) ;
#140 = CC_DESIGN_SECURITY_CLASSIFICATION ( #162, ( #107 ) ) ;
#141 = LOCAL_TIME ( 10, 24, 8.000000000000000000, #111 ) ;
#142 = CARTESIAN_POINT ( 'NONE',  ( -10.00000000000000000, 0.000000000000000000, 0.5000000000000000000 ) ) ;
#143 = DIRECTION ( 'NONE',  ( -0.000000000000000000, -0.000000000000000000, -1.000000000000000000 ) ) ;
#144 = CARTESIAN_POINT ( 'NONE',  ( 0.000000000000000000, 0.000000000000000000, 0.5000000000000000000 ) ) ;
#145 = AXIS2_PLACEMENT_3D ( 'NONE', #30, #77, #158 ) ;
#146 = DATE_TIME_ROLE ( 'creation_date' ) ;
#147 = DATE_TIME_ROLE ( 'classification_date' ) ;
#148 = VECTOR ( 'NONE', #49, 1000.000000000000000 ) ;
#149 = CC_DESIGN_PERSON_AND_ORGANIZATION_ASSIGNMENT ( #79, #156, ( #64 ) ) ;
#150 = ORIENTED_EDGE ( 'NONE', *, *, #163, .T. ) ;
#151 = ORIENTED_EDGE ( 'NONE', *, *, #20, .T. ) ;
#152 = AXIS2_PLACEMENT_3D ( 'NONE', #45, #74, #130 ) ;
#153 = CC_DESIGN_PERSON_AND_ORGANIZATION_ASSIGNMENT ( #97, #136, ( #162 ) ) ;
#154 =( LENGTH_UNIT ( ) NAMED_UNIT ( * ) SI_UNIT ( .MILLI., .METRE. ) );
#155 = AXIS2_PLACEMENT_3D ( 'NONE', #133, #11, #92 ) ;
#156 = PERSON_AND_ORGANIZATION_ROLE ( 'design_owner' ) ;
#157 = CC_DESIGN_PERSON_AND_ORGANIZATION_ASSIGNMENT ( #121, #2, ( #107 ) ) ;
#158 = DIRECTION ( 'NONE',  ( -1.000000000000000000, 0.000000000000000000, 0.000000000000000000 ) ) ;
#159 = APPROVAL_DATE_TIME ( #175, #69 ) ;
#160 = AXIS2_PLACEMENT_3D ( 'NONE', #144, #89, #172 ) ;
#161 = PERSON_AND_ORGANIZATION_ROLE ( 'creator' ) ;
#162 = SECURITY_CLASSIFICATION ( '', '', #52 ) ;
#163 = EDGE_CURVE ( 'NONE', #83, #71, #56, .T. ) ;
#164 = PRODUCT_DEFINITION ( 'UNKNOWN', '', #107, #40 ) ;
#165 = VERTEX_POINT ( 'NONE', #37 ) ;
#166 = CIRCLE ( 'NONE', #115, 10.00000000000000000 ) ;
#167 = ORIENTED_EDGE ( 'NONE', *, *, #20, .F. ) ;
#168 = CC_DESIGN_DATE_AND_TIME_ASSIGNMENT ( #123, #147, ( #162 ) ) ;
#169 = PLANE ( 'NONE',  #152 ) ;
#170 = CARTESIAN_POINT ( 'NONE',  ( 10.00000000000000000, 1.224646799147353256E-15, 0.5000000000000000000 ) ) ;
#171 = CC_DESIGN_APPROVAL ( #69, ( #164 ) ) ;
#172 = DIRECTION ( 'NONE',  ( 1.000000000000000000, 0.000000000000000000, 0.000000000000000000 ) ) ;
#173 = MECHANICAL_CONTEXT ( 'NONE', #85, 'mechanical' ) ;
#174 = EDGE_CURVE ( 'NONE', #71, #83, #43, .T. ) ;
#175 = DATE_AND_TIME ( #120, #16 ) ;
ENDSEC;
END-ISO-10303-21;
