ISO-10303-21;
HEADER;
FILE_DESCRIPTION (( 'STEP AP203' ),
    '1' );
FILE_NAME ('Web Model ZnSe Unctd_39402.step',
    '2018-09-27T18:12:17',
    ( '' ),
    ( '' ),
    'SwSTEP 2.0',
    'SolidWorks 2016',
    '' );
FILE_SCHEMA (( 'CONFIG_CONTROL_DESIGN' ));
ENDSEC;

DATA;
#1 = DIRECTION ( 'NONE',  ( 1.000000000000000000, 0.0000000000000000000, 0.0000000000000000000 ) ) ;
#2 = CALENDAR_DATE ( 2018, 27, 9 ) ;
#3 = APPROVAL_PERSON_ORGANIZATION ( #88, #30, #115 ) ;
#4 = DIRECTION ( 'NONE',  ( -0.0000000000000000000, -0.0000000000000000000, -1.000000000000000000 ) ) ;
#5 = CC_DESIGN_PERSON_AND_ORGANIZATION_ASSIGNMENT ( #97, #28, ( #158 ) ) ;
#6 = PERSON_AND_ORGANIZATION ( #140, #156 ) ;
#7 = MANIFOLD_SOLID_BREP ( 'Boss-Extrude1', #142 ) ;
#8 = PERSON_AND_ORGANIZATION ( #140, #156 ) ;
#9 = LOCAL_TIME ( 14, 12, 17.00000000000000000, #172 ) ;
#10 = CARTESIAN_POINT ( 'NONE',  ( 0.0000000000000000000, 0.0000000000000000000, -1.500000000000000000 ) ) ;
#11 = DIRECTION ( 'NONE',  ( 0.0000000000000000000, 0.0000000000000000000, 1.000000000000000000 ) ) ;
#12 = MECHANICAL_CONTEXT ( 'NONE', #128, 'mechanical' ) ;
#13 = APPLICATION_PROTOCOL_DEFINITION ( 'international standard', 'config_control_design', 1994, #164 ) ;
#14 = APPROVAL_STATUS ( 'not_yet_approved' ) ;
#15 = EDGE_CURVE ( 'NONE', #103, #31, #168, .T. ) ;
#16 = FACE_OUTER_BOUND ( 'NONE', #105, .T. ) ;
#17 = SECURITY_CLASSIFICATION ( '', '', #83 ) ;
#18 = ADVANCED_FACE ( 'NONE', ( #109 ), #108, .T. ) ;
#19 = DESIGN_CONTEXT ( 'detailed design', #164, 'design' ) ;
#20 = AXIS2_PLACEMENT_3D ( 'NONE', #38, #63, #1 ) ;
#21 = ORIENTED_EDGE ( 'NONE', *, *, #15, .T. ) ;
#22 = CARTESIAN_POINT ( 'NONE',  ( 0.0000000000000000000, 0.0000000000000000000, 1.500000000000000000 ) ) ;
#23 = AXIS2_PLACEMENT_3D ( 'NONE', #22, #107, #43 ) ;
#24 = DIRECTION ( 'NONE',  ( 1.000000000000000000, 0.0000000000000000000, 0.0000000000000000000 ) ) ;
#25 = CIRCLE ( 'NONE', #20, 25.39999999999999900 ) ;
#26 = PERSON_AND_ORGANIZATION_ROLE ( 'design_owner' ) ;
#27 = PERSON_AND_ORGANIZATION_ROLE ( 'design_supplier' ) ;
#28 = PERSON_AND_ORGANIZATION_ROLE ( 'creator' ) ;
#29 = CIRCLE ( 'NONE', #154, 25.39999999999999900 ) ;
#30 = APPROVAL ( #46, 'UNSPECIFIED' ) ;
#31 = VERTEX_POINT ( 'NONE', #34 ) ;
#32 = CALENDAR_DATE ( 2018, 27, 9 ) ;
#33 = LOCAL_TIME ( 14, 12, 17.00000000000000000, #39 ) ;
#34 = CARTESIAN_POINT ( 'NONE',  ( 25.39999999999999900, 3.110602869834276900E-015, 1.500000000000000000 ) ) ;
#35 = CC_DESIGN_APPROVAL ( #30, ( #17 ) ) ;
#36 = CARTESIAN_POINT ( 'NONE',  ( 0.0000000000000000000, 0.0000000000000000000, 1.500000000000000000 ) ) ;
#37 = DIRECTION ( 'NONE',  ( 0.0000000000000000000, 0.0000000000000000000, 1.000000000000000000 ) ) ;
#38 = CARTESIAN_POINT ( 'NONE',  ( 0.0000000000000000000, 0.0000000000000000000, -1.500000000000000000 ) ) ;
#39 = COORDINATED_UNIVERSAL_TIME_OFFSET ( 5, 0, .BEHIND. ) ;
#40 = PERSON_AND_ORGANIZATION ( #140, #156 ) ;
#41 = PRODUCT_RELATED_PRODUCT_CATEGORY ( 'detail', '', ( #119 ) ) ;
#42 = VERTEX_POINT ( 'NONE', #157 ) ;
#43 = DIRECTION ( 'NONE',  ( 1.000000000000000000, 0.0000000000000000000, 0.0000000000000000000 ) ) ;
#44 = CC_DESIGN_PERSON_AND_ORGANIZATION_ASSIGNMENT ( #69, #27, ( #158 ) ) ;
#45 = SHAPE_DEFINITION_REPRESENTATION ( #169, #50 ) ;
#46 = APPROVAL_STATUS ( 'not_yet_approved' ) ;
#47 = CALENDAR_DATE ( 2018, 27, 9 ) ;
#48 = DIRECTION ( 'NONE',  ( 0.0000000000000000000, 0.0000000000000000000, 1.000000000000000000 ) ) ;
#49 =( GEOMETRIC_REPRESENTATION_CONTEXT ( 3 ) GLOBAL_UNCERTAINTY_ASSIGNED_CONTEXT ( ( #152 ) ) GLOBAL_UNIT_ASSIGNED_CONTEXT ( ( #166, #84, #150 ) ) REPRESENTATION_CONTEXT ( 'NONE', 'WORKASPACE' ) );
#50 = ADVANCED_BREP_SHAPE_REPRESENTATION ( 'Web Model ZnSe Unctd_39402', ( #7, #114 ), #49 ) ;
#51 = ADVANCED_FACE ( 'NONE', ( #16 ), #74, .T. ) ;
#52 = EDGE_LOOP ( 'NONE', ( #21, #160 ) ) ;
#53 = FACE_OUTER_BOUND ( 'NONE', #126, .T. ) ;
#54 = AXIS2_PLACEMENT_3D ( 'NONE', #60, #4, #144 ) ;
#55 = ORIENTED_EDGE ( 'NONE', *, *, #87, .F. ) ;
#56 = LINE ( 'NONE', #72, #153 ) ;
#57 = DIRECTION ( 'NONE',  ( 1.000000000000000000, 0.0000000000000000000, 0.0000000000000000000 ) ) ;
#58 = VERTEX_POINT ( 'NONE', #77 ) ;
#59 = APPLICATION_PROTOCOL_DEFINITION ( 'international standard', 'config_control_design', 1994, #128 ) ;
#60 = CARTESIAN_POINT ( 'NONE',  ( 0.0000000000000000000, 0.0000000000000000000, 1.500000000000000000 ) ) ;
#61 = LOCAL_TIME ( 14, 12, 17.00000000000000000, #145 ) ;
#62 = DATE_AND_TIME ( #92, #134 ) ;
#63 = DIRECTION ( 'NONE',  ( 0.0000000000000000000, 0.0000000000000000000, 1.000000000000000000 ) ) ;
#64 = APPROVAL_STATUS ( 'not_yet_approved' ) ;
#65 = VECTOR ( 'NONE', #71, 1000.000000000000000 ) ;
#66 = CC_DESIGN_PERSON_AND_ORGANIZATION_ASSIGNMENT ( #67, #112, ( #17 ) ) ;
#67 = PERSON_AND_ORGANIZATION ( #140, #156 ) ;
#68 = ORIENTED_EDGE ( 'NONE', *, *, #137, .F. ) ;
#69 = PERSON_AND_ORGANIZATION ( #140, #156 ) ;
#70 = EDGE_CURVE ( 'NONE', #103, #42, #155, .T. ) ;
#71 = DIRECTION ( 'NONE',  ( -0.0000000000000000000, -0.0000000000000000000, -1.000000000000000000 ) ) ;
#72 = CARTESIAN_POINT ( 'NONE',  ( 25.39999999999999900, 3.110602869834276900E-015, 1.500000000000000000 ) ) ;
#73 = DATE_AND_TIME ( #47, #33 ) ;
#74 = CYLINDRICAL_SURFACE ( 'NONE', #117, 25.39999999999999900 ) ;
#75 = ADVANCED_FACE ( 'NONE', ( #53 ), #159, .F. ) ;
#76 = AXIS2_PLACEMENT_3D ( 'NONE', #36, #121, #138 ) ;
#77 = CARTESIAN_POINT ( 'NONE',  ( 25.39999999999999900, 3.110602869834276900E-015, -1.500000000000000000 ) ) ;
#78 = FACE_OUTER_BOUND ( 'NONE', #122, .T. ) ;
#79 = CC_DESIGN_APPROVAL ( #99, ( #102 ) ) ;
#80 = CARTESIAN_POINT ( 'NONE',  ( 0.0000000000000000000, 0.0000000000000000000, -1.500000000000000000 ) ) ;
#81 = ORIENTED_EDGE ( 'NONE', *, *, #123, .F. ) ;
#82 = APPROVAL_PERSON_ORGANIZATION ( #120, #99, #111 ) ;
#83 = SECURITY_CLASSIFICATION_LEVEL ( 'unclassified' ) ;
#84 =( NAMED_UNIT ( * ) PLANE_ANGLE_UNIT ( ) SI_UNIT ( $, .RADIAN. ) );
#85 = ORIENTED_EDGE ( 'NONE', *, *, #70, .F. ) ;
#86 = ORIENTED_EDGE ( 'NONE', *, *, #87, .T. ) ;
#87 = EDGE_CURVE ( 'NONE', #58, #42, #89, .T. ) ;
#88 = PERSON_AND_ORGANIZATION ( #140, #156 ) ;
#89 = CIRCLE ( 'NONE', #149, 25.39999999999999900 ) ;
#90 = EDGE_CURVE ( 'NONE', #31, #58, #56, .T. ) ;
#91 = APPROVAL_PERSON_ORGANIZATION ( #6, #171, #95 ) ;
#92 = CALENDAR_DATE ( 2018, 27, 9 ) ;
#93 = ORIENTED_EDGE ( 'NONE', *, *, #137, .T. ) ;
#94 = DIRECTION ( 'NONE',  ( -0.0000000000000000000, -0.0000000000000000000, -1.000000000000000000 ) ) ;
#95 = APPROVAL_ROLE ( '' ) ;
#96 = CC_DESIGN_DATE_AND_TIME_ASSIGNMENT ( #73, #113, ( #17 ) ) ;
#97 = PERSON_AND_ORGANIZATION ( #140, #156 ) ;
#98 = DATE_TIME_ROLE ( 'creation_date' ) ;
#99 = APPROVAL ( #64, 'UNSPECIFIED' ) ;
#100 = ORIENTED_EDGE ( 'NONE', *, *, #15, .F. ) ;
#101 = APPROVAL_DATE_TIME ( #136, #171 ) ;
#102 = PRODUCT_DEFINITION ( 'UNKNOWN', '', #158, #19 ) ;
#103 = VERTEX_POINT ( 'NONE', #148 ) ;
#104 = CC_DESIGN_APPROVAL ( #171, ( #158 ) ) ;
#105 = EDGE_LOOP ( 'NONE', ( #81, #132, #86, #85 ) ) ;
#106 = CYLINDRICAL_SURFACE ( 'NONE', #54, 25.39999999999999900 ) ;
#107 = DIRECTION ( 'NONE',  ( 0.0000000000000000000, 0.0000000000000000000, 1.000000000000000000 ) ) ;
#108 = PLANE ( 'NONE',  #76 ) ;
#109 = FACE_OUTER_BOUND ( 'NONE', #52, .T. ) ;
#110 = CALENDAR_DATE ( 2018, 27, 9 ) ;
#111 = APPROVAL_ROLE ( '' ) ;
#112 = PERSON_AND_ORGANIZATION_ROLE ( 'classification_officer' ) ;
#113 = DATE_TIME_ROLE ( 'classification_date' ) ;
#114 = AXIS2_PLACEMENT_3D ( 'NONE', #143, #37, #57 ) ;
#115 = APPROVAL_ROLE ( '' ) ;
#116 = LOCAL_TIME ( 14, 12, 17.00000000000000000, #163 ) ;
#117 = AXIS2_PLACEMENT_3D ( 'NONE', #125, #94, #141 ) ;
#118 = APPROVAL_DATE_TIME ( #162, #99 ) ;
#119 = PRODUCT ( 'Web Model ZnSe Unctd_39402', 'Web Model ZnSe Unctd_39402', '', ( #12 ) ) ;
#120 = PERSON_AND_ORGANIZATION ( #140, #156 ) ;
#121 = DIRECTION ( 'NONE',  ( 0.0000000000000000000, 0.0000000000000000000, 1.000000000000000000 ) ) ;
#122 = EDGE_LOOP ( 'NONE', ( #170, #100, #175, #93 ) ) ;
#123 = EDGE_CURVE ( 'NONE', #31, #103, #29, .T. ) ;
#124 = DIRECTION ( 'NONE',  ( 1.000000000000000000, 0.0000000000000000000, -0.0000000000000000000 ) ) ;
#125 = CARTESIAN_POINT ( 'NONE',  ( 0.0000000000000000000, 0.0000000000000000000, 1.500000000000000000 ) ) ;
#126 = EDGE_LOOP ( 'NONE', ( #68, #55 ) ) ;
#127 = CC_DESIGN_PERSON_AND_ORGANIZATION_ASSIGNMENT ( #8, #26, ( #119 ) ) ;
#128 = APPLICATION_CONTEXT ( 'configuration controlled 3d designs of mechanical parts and assemblies' ) ;
#129 = PERSON_AND_ORGANIZATION_ROLE ( 'creator' ) ;
#130 = ADVANCED_FACE ( 'NONE', ( #78 ), #106, .T. ) ;
#131 = CC_DESIGN_PERSON_AND_ORGANIZATION_ASSIGNMENT ( #40, #129, ( #102 ) ) ;
#132 = ORIENTED_EDGE ( 'NONE', *, *, #90, .T. ) ;
#133 = DATE_AND_TIME ( #2, #9 ) ;
#134 = LOCAL_TIME ( 14, 12, 17.00000000000000000, #151 ) ;
#135 = AXIS2_PLACEMENT_3D ( 'NONE', #10, #161, #124 ) ;
#136 = DATE_AND_TIME ( #32, #61 ) ;
#137 = EDGE_CURVE ( 'NONE', #42, #58, #25, .T. ) ;
#138 = DIRECTION ( 'NONE',  ( 1.000000000000000000, 0.0000000000000000000, -0.0000000000000000000 ) ) ;
#139 = CARTESIAN_POINT ( 'NONE',  ( -25.39999999999999900, 0.0000000000000000000, 1.500000000000000000 ) ) ;
#140 = PERSON ( 'UNSPECIFIED', 'UNSPECIFIED', 'UNSPECIFIED', ('UNSPECIFIED'), ('UNSPECIFIED'), ('UNSPECIFIED') ) ;
#141 = DIRECTION ( 'NONE',  ( -1.000000000000000000, 0.0000000000000000000, 0.0000000000000000000 ) ) ;
#142 = CLOSED_SHELL ( 'NONE', ( #51, #130, #18, #75 ) ) ;
#143 = CARTESIAN_POINT ( 'NONE',  ( 0.0000000000000000000, 0.0000000000000000000, 0.0000000000000000000 ) ) ;
#144 = DIRECTION ( 'NONE',  ( -1.000000000000000000, 0.0000000000000000000, 0.0000000000000000000 ) ) ;
#145 = COORDINATED_UNIVERSAL_TIME_OFFSET ( 5, 0, .BEHIND. ) ;
#146 = CARTESIAN_POINT ( 'NONE',  ( 0.0000000000000000000, 0.0000000000000000000, 1.500000000000000000 ) ) ;
#147 = DIRECTION ( 'NONE',  ( 1.000000000000000000, 0.0000000000000000000, 0.0000000000000000000 ) ) ;
#148 = CARTESIAN_POINT ( 'NONE',  ( -25.39999999999999900, 0.0000000000000000000, 1.500000000000000000 ) ) ;
#149 = AXIS2_PLACEMENT_3D ( 'NONE', #80, #11, #24 ) ;
#150 =( NAMED_UNIT ( * ) SI_UNIT ( $, .STERADIAN. ) SOLID_ANGLE_UNIT ( ) );
#151 = COORDINATED_UNIVERSAL_TIME_OFFSET ( 5, 0, .BEHIND. ) ;
#152 = UNCERTAINTY_MEASURE_WITH_UNIT (LENGTH_MEASURE( 1.000000000000000100E-005 ), #166, 'distance_accuracy_value', 'NONE');
#153 = VECTOR ( 'NONE', #174, 1000.000000000000000 ) ;
#154 = AXIS2_PLACEMENT_3D ( 'NONE', #146, #48, #147 ) ;
#155 = LINE ( 'NONE', #139, #65 ) ;
#156 = ORGANIZATION ( 'UNSPECIFIED', 'UNSPECIFIED', '' ) ;
#157 = CARTESIAN_POINT ( 'NONE',  ( -25.39999999999999900, 0.0000000000000000000, -1.500000000000000000 ) ) ;
#158 = PRODUCT_DEFINITION_FORMATION_WITH_SPECIFIED_SOURCE ( 'ANY', '', #119, .NOT_KNOWN. ) ;
#159 = PLANE ( 'NONE',  #135 ) ;
#160 = ORIENTED_EDGE ( 'NONE', *, *, #123, .T. ) ;
#161 = DIRECTION ( 'NONE',  ( 0.0000000000000000000, 0.0000000000000000000, 1.000000000000000000 ) ) ;
#162 = DATE_AND_TIME ( #110, #116 ) ;
#163 = COORDINATED_UNIVERSAL_TIME_OFFSET ( 5, 0, .BEHIND. ) ;
#164 = APPLICATION_CONTEXT ( 'configuration controlled 3d designs of mechanical parts and assemblies' ) ;
#165 = CC_DESIGN_DATE_AND_TIME_ASSIGNMENT ( #133, #98, ( #102 ) ) ;
#166 =( LENGTH_UNIT ( ) NAMED_UNIT ( * ) SI_UNIT ( .MILLI., .METRE. ) );
#167 = CC_DESIGN_SECURITY_CLASSIFICATION ( #17, ( #158 ) ) ;
#168 = CIRCLE ( 'NONE', #23, 25.39999999999999900 ) ;
#169 = PRODUCT_DEFINITION_SHAPE ( 'NONE', 'NONE',  #102 ) ;
#170 = ORIENTED_EDGE ( 'NONE', *, *, #90, .F. ) ;
#171 = APPROVAL ( #14, 'UNSPECIFIED' ) ;
#172 = COORDINATED_UNIVERSAL_TIME_OFFSET ( 5, 0, .BEHIND. ) ;
#173 = APPROVAL_DATE_TIME ( #62, #30 ) ;
#174 = DIRECTION ( 'NONE',  ( -0.0000000000000000000, -0.0000000000000000000, -1.000000000000000000 ) ) ;
#175 = ORIENTED_EDGE ( 'NONE', *, *, #70, .T. ) ;
ENDSEC;
END-ISO-10303-21;
