ISO-10303-21;
HEADER;
FILE_DESCRIPTION (( 'STEP AP203' ),
    '1' );
FILE_NAME ('TTN162743-E0W.STEP',
    '2019-10-24T14:04:27',
    ( '' ),
    ( '' ),
    'SwSTEP 2.0',
    'SolidWorks 2018',
    '' );
FILE_SCHEMA (( 'CONFIG_CONTROL_DESIGN' ));
ENDSEC;

DATA;
#1 = EDGE_CURVE ( 'NONE', #252, #74, #150, .T. ) ;
#2 = LOCAL_TIME ( 10, 4, 27.00000000000000000, #188 ) ;
#3 = FACE_OUTER_BOUND ( 'NONE', #280, .T. ) ;
#4 = DIRECTION ( 'NONE',  ( 0.0000000000000000000, -3.901805859645347732E-17, 1.000000000000000000 ) ) ;
#5 = DIRECTION ( 'NONE',  ( 0.0000000000000000000, 3.901805859645347732E-17, -1.000000000000000000 ) ) ;
#6 = DIRECTION ( 'NONE',  ( 8.659560562354969836E-17, -0.7071067811865505703, -0.7071067811865444641 ) ) ;
#7 = DIRECTION ( 'NONE',  ( 0.0000000000000000000, 1.000000000000000000, 4.605786629080307114E-17 ) ) ;
#8 = DIRECTION ( 'NONE',  ( -0.0000000000000000000, -3.901805859645374233E-17, 1.000000000000000000 ) ) ;
#9 = DIRECTION ( 'NONE',  ( -1.000000000000000000, 0.0000000000000000000, 0.0000000000000000000 ) ) ;
#10 =( NAMED_UNIT ( * ) SI_UNIT ( $, .STERADIAN. ) SOLID_ANGLE_UNIT ( ) );
#11 = APPLICATION_CONTEXT ( 'configuration controlled 3d designs of mechanical parts and assemblies' ) ;
#12 = ORIENTED_EDGE ( 'NONE', *, *, #249, .T. ) ;
#13 = ORIENTED_EDGE ( 'NONE', *, *, #27, .F. ) ;
#14 = APPROVAL_ROLE ( '' ) ;
#15 = PERSON_AND_ORGANIZATION ( #277, #99 ) ;
#16 = CARTESIAN_POINT ( 'NONE',  ( 0.7815947082981407057, 1.542606201685716938, 1.746830598001249069 ) ) ;
#17 = DIRECTION ( 'NONE',  ( 0.0000000000000000000, -1.000000000000000000, 0.0000000000000000000 ) ) ;
#18 = CIRCLE ( 'NONE', #102, 1.449999999999999734 ) ;
#19 = EDGE_CURVE ( 'NONE', #252, #37, #244, .T. ) ;
#20 = ORIENTED_EDGE ( 'NONE', *, *, #50, .F. ) ;
#21 = DIRECTION ( 'NONE',  ( 1.000000000000000000, 0.0000000000000000000, 0.0000000000000000000 ) ) ;
#22 = PERSON_AND_ORGANIZATION_ROLE ( 'classification_officer' ) ;
#23 = APPROVAL_DATE_TIME ( #151, #211 ) ;
#24 = AXIS2_PLACEMENT_3D ( 'NONE', #41, #38, #282 ) ;
#25 = VERTEX_POINT ( 'NONE', #198 ) ;
#26 = CALENDAR_DATE ( 2019, 24, 10 ) ;
#27 = EDGE_CURVE ( 'NONE', #137, #152, #258, .T. ) ;
#28 = APPROVAL ( #273, 'UNSPECIFIED' ) ;
#29 = EDGE_CURVE ( 'NONE', #109, #152, #92, .T. ) ;
#30 = CALENDAR_DATE ( 2019, 24, 10 ) ;
#31 = ORIENTED_EDGE ( 'NONE', *, *, #268, .F. ) ;
#32 = COORDINATED_UNIVERSAL_TIME_OFFSET ( 5, 0, .BEHIND. ) ;
#33 = ADVANCED_FACE ( 'NONE', ( #3 ), #124, .T. ) ;
#34 = CARTESIAN_POINT ( 'NONE',  ( 0.7815947082981407057, 2.992606201685716893, 3.017978284782742548 ) ) ;
#35 = DIRECTION ( 'NONE',  ( 0.0000000000000000000, 1.000000000000000000, 4.605786629080307114E-17 ) ) ;
#36 = ORIENTED_EDGE ( 'NONE', *, *, #272, .F. ) ;
#37 = VERTEX_POINT ( 'NONE', #111 ) ;
#38 = DIRECTION ( 'NONE',  ( -0.0000000000000000000, -3.901805859645347732E-17, 1.000000000000000000 ) ) ;
#39 = CARTESIAN_POINT ( 'NONE',  ( 0.7815947082981407057, 1.542606201685716938, 2.967978284782742726 ) ) ;
#40 = CC_DESIGN_APPROVAL ( #28, ( #167 ) ) ;
#41 = CARTESIAN_POINT ( 'NONE',  ( 0.7815947082981407057, 1.542606201685716938, 2.967978284782742726 ) ) ;
#42 = PERSON_AND_ORGANIZATION ( #277, #99 ) ;
#43 = DIRECTION ( 'NONE',  ( 1.000000000000000000, 0.0000000000000000000, 0.0000000000000000000 ) ) ;
#44 = SECURITY_CLASSIFICATION_LEVEL ( 'unclassified' ) ;
#45 = AXIS2_PLACEMENT_3D ( 'NONE', #136, #8, #158 ) ;
#46 = COORDINATED_UNIVERSAL_TIME_OFFSET ( 5, 0, .BEHIND. ) ;
#47 = DIRECTION ( 'NONE',  ( -0.0000000000000000000, -3.901805859645347732E-17, 1.000000000000000000 ) ) ;
#48 = ORIENTED_EDGE ( 'NONE', *, *, #77, .T. ) ;
#49 = CIRCLE ( 'NONE', #93, 1.450000000000000400 ) ;
#50 = EDGE_CURVE ( 'NONE', #152, #37, #224, .T. ) ;
#51 = ORIENTED_EDGE ( 'NONE', *, *, #193, .T. ) ;
#52 = PERSON_AND_ORGANIZATION ( #277, #99 ) ;
#53 = ORIENTED_EDGE ( 'NONE', *, *, #1, .T. ) ;
#54 = AXIS2_PLACEMENT_3D ( 'NONE', #84, #257, #131 ) ;
#55 = VECTOR ( 'NONE', #6, 1000.000000000000000 ) ;
#56 = SPHERICAL_SURFACE ( 'NONE', #221, 4.708000000000000185 ) ;
#57 = PRODUCT ( 'TTN162743-E0W', 'TTN162743-E0W', '', ( #139 ) ) ;
#58 = EDGE_LOOP ( 'NONE', ( #96, #215, #286, #72 ) ) ;
#59 = AXIS2_PLACEMENT_3D ( 'NONE', #66, #214, #212 ) ;
#60 = DATE_TIME_ROLE ( 'classification_date' ) ;
#61 = CARTESIAN_POINT ( 'NONE',  ( 0.7815947082981409277, 0.04260620168571689625, 2.967978284782742726 ) ) ;
#62 = DIRECTION ( 'NONE',  ( 0.0000000000000000000, 1.000000000000000000, 0.0000000000000000000 ) ) ;
#63 = CONICAL_SURFACE ( 'NONE', #91, 1.500000000000000000, 0.7853981633974503884 ) ;
#64 = CARTESIAN_POINT ( 'NONE',  ( 0.7815947082981407057, 1.542606201685716938, 1.796830598001248447 ) ) ;
#65 = EDGE_CURVE ( 'NONE', #137, #148, #49, .T. ) ;
#66 = CARTESIAN_POINT ( 'NONE',  ( 0.7815947082981407057, 1.542606201685716938, 1.796830598001248447 ) ) ;
#67 = APPROVAL_STATUS ( 'not_yet_approved' ) ;
#68 = DIRECTION ( 'NONE',  ( 0.0000000000000000000, 0.7071067811865505703, -0.7071067811865444641 ) ) ;
#69 = AXIS2_PLACEMENT_3D ( 'NONE', #16, #222, #197 ) ;
#70 = CIRCLE ( 'NONE', #69, 1.450000000000000400 ) ;
#71 = CARTESIAN_POINT ( 'NONE',  ( 0.7815947082981409277, 3.042606201685717160, 1.796830598001248447 ) ) ;
#72 = ORIENTED_EDGE ( 'NONE', *, *, #204, .F. ) ;
#73 = CC_DESIGN_DATE_AND_TIME_ASSIGNMENT ( #240, #196, ( #123 ) ) ;
#74 = VERTEX_POINT ( 'NONE', #245 ) ;
#75 = EDGE_CURVE ( 'NONE', #37, #161, #263, .T. ) ;
#76 = APPROVAL_DATE_TIME ( #142, #28 ) ;
#77 = EDGE_CURVE ( 'NONE', #25, #161, #227, .T. ) ;
#78 = PERSON_AND_ORGANIZATION ( #277, #99 ) ;
#79 =( GEOMETRIC_REPRESENTATION_CONTEXT ( 3 ) GLOBAL_UNCERTAINTY_ASSIGNED_CONTEXT ( ( #261 ) ) GLOBAL_UNIT_ASSIGNED_CONTEXT ( ( #90, #267, #10 ) ) REPRESENTATION_CONTEXT ( 'NONE', 'WORKASPACE' ) );
#80 = DIRECTION ( 'NONE',  ( -0.0000000000000000000, -3.901805859645347732E-17, 1.000000000000000000 ) ) ;
#81 = CARTESIAN_POINT ( 'NONE',  ( 0.7815947082981407057, 0.04260620168571689625, 1.796830598001248447 ) ) ;
#82 = LINE ( 'NONE', #81, #284 ) ;
#83 = VECTOR ( 'NONE', #186, 1000.000000000000114 ) ;
#84 = CARTESIAN_POINT ( 'NONE',  ( 0.7815947082981407057, 1.542606201685716938, 1.796830598001248447 ) ) ;
#85 = CARTESIAN_POINT ( 'NONE',  ( 0.7815947082981407057, 0.04260620168571689625, 1.796830598001248447 ) ) ;
#86 = ADVANCED_FACE ( 'NONE', ( #133 ), #63, .T. ) ;
#87 = DIRECTION ( 'NONE',  ( 0.0000000000000000000, 1.000000000000000000, 0.0000000000000000000 ) ) ;
#88 = CONICAL_SURFACE ( 'NONE', #54, 1.500000000000000000, 0.7853981633974503884 ) ;
#89 = EDGE_LOOP ( 'NONE', ( #255, #275, #225, #208 ) ) ;
#90 =( LENGTH_UNIT ( ) NAMED_UNIT ( * ) SI_UNIT ( .MILLI., .METRE. ) );
#91 = AXIS2_PLACEMENT_3D ( 'NONE', #64, #283, #234 ) ;
#92 = CIRCLE ( 'NONE', #45, 1.500000000000000000 ) ;
#93 = AXIS2_PLACEMENT_3D ( 'NONE', #119, #294, #106 ) ;
#94 = LOCAL_TIME ( 10, 4, 27.00000000000000000, #159 ) ;
#95 = CC_DESIGN_SECURITY_CLASSIFICATION ( #167, ( #223 ) ) ;
#96 = ORIENTED_EDGE ( 'NONE', *, *, #29, .T. ) ;
#97 = AXIS2_PLACEMENT_3D ( 'NONE', #295, #21, #200 ) ;
#98 = SHAPE_DEFINITION_REPRESENTATION ( #264, #206 ) ;
#99 = ORGANIZATION ( 'UNSPECIFIED', 'UNSPECIFIED', '' ) ;
#100 = ORIENTED_EDGE ( 'NONE', *, *, #193, .F. ) ;
#101 = COORDINATED_UNIVERSAL_TIME_OFFSET ( 5, 0, .BEHIND. ) ;
#102 = AXIS2_PLACEMENT_3D ( 'NONE', #281, #180, #140 ) ;
#103 = ORIENTED_EDGE ( 'NONE', *, *, #1, .F. ) ;
#104 = EDGE_LOOP ( 'NONE', ( #299, #12, #53 ) ) ;
#105 = CARTESIAN_POINT ( 'NONE',  ( 0.7815947082981407057, 1.542606201685716938, 2.967978284782742726 ) ) ;
#106 = DIRECTION ( 'NONE',  ( 0.0000000000000000000, -1.000000000000000000, 0.0000000000000000000 ) ) ;
#107 = PERSON_AND_ORGANIZATION ( #277, #99 ) ;
#108 = AXIS2_PLACEMENT_3D ( 'NONE', #39, #5, #87 ) ;
#109 = VERTEX_POINT ( 'NONE', #85 ) ;
#110 = PERSON_AND_ORGANIZATION_ROLE ( 'design_supplier' ) ;
#111 = CARTESIAN_POINT ( 'NONE',  ( 0.7815947082981409277, 3.042606201685717160, 2.967978284782742726 ) ) ;
#112 = DIRECTION ( 'NONE',  ( 0.0000000000000000000, 0.0000000000000000000, 1.000000000000000000 ) ) ;
#113 = DATE_AND_TIME ( #168, #274 ) ;
#114 = CC_DESIGN_APPROVAL ( #211, ( #123 ) ) ;
#115 = PERSON_AND_ORGANIZATION_ROLE ( 'creator' ) ;
#116 = AXIS2_PLACEMENT_3D ( 'NONE', #237, #80, #138 ) ;
#117 = VECTOR ( 'NONE', #297, 1000.000000000000000 ) ;
#118 = CARTESIAN_POINT ( 'NONE',  ( 0.7815947082981407057, 3.042606201685717160, 2.967978284782742726 ) ) ;
#119 = CARTESIAN_POINT ( 'NONE',  ( 0.7815947082981407057, 1.542606201685716938, 1.746830598001249069 ) ) ;
#120 = FACE_OUTER_BOUND ( 'NONE', #183, .T. ) ;
#121 = APPROVAL_ROLE ( '' ) ;
#122 = DESIGN_CONTEXT ( 'detailed design', #11, 'design' ) ;
#123 = PRODUCT_DEFINITION ( 'UNKNOWN', '', #223, #122 ) ;
#124 = SPHERICAL_SURFACE ( 'NONE', #176, 4.708000000000000185 ) ;
#125 = ORIENTED_EDGE ( 'NONE', *, *, #134, .T. ) ;
#126 = AXIS2_PLACEMENT_3D ( 'NONE', #105, #233, #62 ) ;
#127 = ORIENTED_EDGE ( 'NONE', *, *, #249, .F. ) ;
#128 = CARTESIAN_POINT ( 'NONE',  ( 0.7815947082981407057, 0.04260620168571689625, 3.246830598001249069 ) ) ;
#129 = ADVANCED_FACE ( 'NONE', ( #171 ), #56, .T. ) ;
#130 = PRODUCT_RELATED_PRODUCT_CATEGORY ( 'detail', '', ( #57 ) ) ;
#131 = DIRECTION ( 'NONE',  ( 0.0000000000000000000, -1.000000000000000000, 0.0000000000000000000 ) ) ;
#132 = DIRECTION ( 'NONE',  ( -1.151446657270076840E-16, -1.000000000000000000, 0.0000000000000000000 ) ) ;
#133 = FACE_OUTER_BOUND ( 'NONE', #265, .T. ) ;
#134 = EDGE_CURVE ( 'NONE', #25, #74, #190, .T. ) ;
#135 = CARTESIAN_POINT ( 'NONE',  ( 0.7815947082981407057, 1.542606201685717160, -1.461169401998751338 ) ) ;
#136 = CARTESIAN_POINT ( 'NONE',  ( 0.7815947082981407057, 1.542606201685716938, 1.796830598001248447 ) ) ;
#137 = VERTEX_POINT ( 'NONE', #175 ) ;
#138 = DIRECTION ( 'NONE',  ( 0.0000000000000000000, -1.000000000000000000, 0.0000000000000000000 ) ) ;
#139 = MECHANICAL_CONTEXT ( 'NONE', #290, 'mechanical' ) ;
#140 = DIRECTION ( 'NONE',  ( 0.0000000000000000000, -1.000000000000000000, 0.0000000000000000000 ) ) ;
#141 = CALENDAR_DATE ( 2019, 24, 10 ) ;
#142 = DATE_AND_TIME ( #26, #203 ) ;
#143 = FACE_OUTER_BOUND ( 'NONE', #89, .T. ) ;
#144 = EDGE_LOOP ( 'NONE', ( #205, #31, #189, #241 ) ) ;
#145 = CC_DESIGN_PERSON_AND_ORGANIZATION_ASSIGNMENT ( #78, #194, ( #123 ) ) ;
#146 = AXIS2_PLACEMENT_3D ( 'NONE', #172, #4, #260 ) ;
#147 = CYLINDRICAL_SURFACE ( 'NONE', #293, 1.500000000000000000 ) ;
#148 = VERTEX_POINT ( 'NONE', #157 ) ;
#149 = CIRCLE ( 'NONE', #59, 1.500000000000000000 ) ;
#150 = CIRCLE ( 'NONE', #97, 4.708000000000000185 ) ;
#151 = DATE_AND_TIME ( #30, #94 ) ;
#152 = VERTEX_POINT ( 'NONE', #153 ) ;
#153 = CARTESIAN_POINT ( 'NONE',  ( 0.7815947082981409277, 3.042606201685717160, 1.796830598001248447 ) ) ;
#154 = ADVANCED_FACE ( 'NONE', ( #120 ), #301, .T. ) ;
#155 = ADVANCED_FACE ( 'NONE', ( #271 ), #296, .T. ) ;
#156 = CC_DESIGN_PERSON_AND_ORGANIZATION_ASSIGNMENT ( #278, #110, ( #223 ) ) ;
#157 = CARTESIAN_POINT ( 'NONE',  ( 0.7815947082981407057, 0.09260620168571659372, 1.746830598001249069 ) ) ;
#158 = DIRECTION ( 'NONE',  ( 0.0000000000000000000, -1.000000000000000000, 0.0000000000000000000 ) ) ;
#159 = COORDINATED_UNIVERSAL_TIME_OFFSET ( 5, 0, .BEHIND. ) ;
#160 = APPROVAL_STATUS ( 'not_yet_approved' ) ;
#161 = VERTEX_POINT ( 'NONE', #177 ) ;
#162 = PERSON_AND_ORGANIZATION_ROLE ( 'design_owner' ) ;
#163 = DIRECTION ( 'NONE',  ( 0.0000000000000000000, -1.000000000000000000, 0.0000000000000000000 ) ) ;
#164 = APPROVAL ( #67, 'UNSPECIFIED' ) ;
#165 = ORIENTED_EDGE ( 'NONE', *, *, #75, .F. ) ;
#166 = APPLICATION_PROTOCOL_DEFINITION ( 'international standard', 'config_control_design', 1994, #290 ) ;
#167 = SECURITY_CLASSIFICATION ( '', '', #44 ) ;
#168 = CALENDAR_DATE ( 2019, 24, 10 ) ;
#169 = CALENDAR_DATE ( 2019, 24, 10 ) ;
#170 = ADVANCED_FACE ( 'NONE', ( #298 ), #235, .F. ) ;
#171 = FACE_OUTER_BOUND ( 'NONE', #104, .T. ) ;
#172 = CARTESIAN_POINT ( 'NONE',  ( 0.7815947082981407057, 1.542606201685717160, 1.746830598001249069 ) ) ;
#173 = ORIENTED_EDGE ( 'NONE', *, *, #19, .F. ) ;
#174 = DIRECTION ( 'NONE',  ( -1.000000000000000000, 0.0000000000000000000, 0.0000000000000000000 ) ) ;
#175 = CARTESIAN_POINT ( 'NONE',  ( 0.7815947082981409277, 2.992606201685717338, 1.746830598001249069 ) ) ;
#176 = AXIS2_PLACEMENT_3D ( 'NONE', #185, #9, #35 ) ;
#177 = CARTESIAN_POINT ( 'NONE',  ( 0.7815947082981407057, 0.04260620168571689625, 2.967978284782742726 ) ) ;
#178 = ORIENTED_EDGE ( 'NONE', *, *, #272, .T. ) ;
#179 = APPROVAL_ROLE ( '' ) ;
#180 = DIRECTION ( 'NONE',  ( -0.0000000000000000000, -3.901805859645347732E-17, 1.000000000000000000 ) ) ;
#181 = APPROVAL_PERSON_ORGANIZATION ( #187, #164, #14 ) ;
#182 = DIRECTION ( 'NONE',  ( 0.0000000000000000000, -1.000000000000000000, 0.0000000000000000000 ) ) ;
#183 = EDGE_LOOP ( 'NONE', ( #127, #48, #246, #173 ) ) ;
#184 = CARTESIAN_POINT ( 'NONE',  ( 0.7815947082981407057, 1.542606201685716938, 3.246830598001249069 ) ) ;
#185 = CARTESIAN_POINT ( 'NONE',  ( 0.7815947082981407057, 1.542606201685717160, -1.461169401998751338 ) ) ;
#186 = DIRECTION ( 'NONE',  ( 8.659560562354951347E-17, 0.7071067811865489050, 0.7071067811865460184 ) ) ;
#187 = PERSON_AND_ORGANIZATION ( #277, #99 ) ;
#188 = COORDINATED_UNIVERSAL_TIME_OFFSET ( 5, 0, .BEHIND. ) ;
#189 = ORIENTED_EDGE ( 'NONE', *, *, #19, .T. ) ;
#190 = CIRCLE ( 'NONE', #232, 4.708000000000000185 ) ;
#191 = CARTESIAN_POINT ( 'NONE',  ( 0.7815947082981407057, 1.542606201685717160, -1.461169401998751338 ) ) ;
#192 = DIRECTION ( 'NONE',  ( -0.0000000000000000000, -3.901805859645347732E-17, 1.000000000000000000 ) ) ;
#193 = EDGE_CURVE ( 'NONE', #152, #109, #149, .T. ) ;
#194 = PERSON_AND_ORGANIZATION_ROLE ( 'creator' ) ;
#195 = APPLICATION_PROTOCOL_DEFINITION ( 'international standard', 'config_control_design', 1994, #11 ) ;
#196 = DATE_TIME_ROLE ( 'creation_date' ) ;
#197 = DIRECTION ( 'NONE',  ( 0.0000000000000000000, -1.000000000000000000, 0.0000000000000000000 ) ) ;
#198 = CARTESIAN_POINT ( 'NONE',  ( 0.7815947082981409277, 0.09260620168571724597, 3.017978284782742548 ) ) ;
#199 = LOCAL_TIME ( 10, 4, 27.00000000000000000, #32 ) ;
#200 = DIRECTION ( 'NONE',  ( 0.0000000000000000000, 0.0000000000000000000, -1.000000000000000000 ) ) ;
#201 = LINE ( 'NONE', #128, #276 ) ;
#202 = ORIENTED_EDGE ( 'NONE', *, *, #65, .T. ) ;
#203 = LOCAL_TIME ( 10, 4, 27.00000000000000000, #101 ) ;
#204 = EDGE_CURVE ( 'NONE', #109, #161, #201, .T. ) ;
#205 = ORIENTED_EDGE ( 'NONE', *, *, #77, .F. ) ;
#206 = ADVANCED_BREP_SHAPE_REPRESENTATION ( 'TTN162743-E0W', ( #253, #247 ), #79 ) ;
#207 = APPROVAL_PERSON_ORGANIZATION ( #42, #211, #179 ) ;
#208 = ORIENTED_EDGE ( 'NONE', *, *, #238, .F. ) ;
#209 = DIRECTION ( 'NONE',  ( -1.000000000000000000, 1.224646799147353207E-16, 4.778334056909062030E-33 ) ) ;
#210 = ORIENTED_EDGE ( 'NONE', *, *, #268, .T. ) ;
#211 = APPROVAL ( #160, 'UNSPECIFIED' ) ;
#212 = DIRECTION ( 'NONE',  ( 0.0000000000000000000, -1.000000000000000000, 0.0000000000000000000 ) ) ;
#213 = CIRCLE ( 'NONE', #300, 1.449999999999999734 ) ;
#214 = DIRECTION ( 'NONE',  ( -0.0000000000000000000, -3.901805859645374233E-17, 1.000000000000000000 ) ) ;
#215 = ORIENTED_EDGE ( 'NONE', *, *, #50, .T. ) ;
#216 = DIRECTION ( 'NONE',  ( -0.0000000000000000000, -3.901805859645347732E-17, 1.000000000000000000 ) ) ;
#217 = DATE_AND_TIME ( #169, #199 ) ;
#218 = DIRECTION ( 'NONE',  ( -0.0000000000000000000, -3.901805859645347732E-17, 1.000000000000000000 ) ) ;
#219 = APPROVAL_DATE_TIME ( #113, #164 ) ;
#220 = EDGE_LOOP ( 'NONE', ( #20, #51, #292, #165 ) ) ;
#221 = AXIS2_PLACEMENT_3D ( 'NONE', #191, #174, #7 ) ;
#222 = DIRECTION ( 'NONE',  ( 0.0000000000000000000, 3.901805859645347732E-17, -1.000000000000000000 ) ) ;
#223 = PRODUCT_DEFINITION_FORMATION_WITH_SPECIFIED_SOURCE ( 'ANY', '', #57, .NOT_KNOWN. ) ;
#224 = LINE ( 'NONE', #270, #117 ) ;
#225 = ORIENTED_EDGE ( 'NONE', *, *, #29, .F. ) ;
#226 = PERSON_AND_ORGANIZATION ( #277, #99 ) ;
#227 = LINE ( 'NONE', #61, #55 ) ;
#228 = FACE_OUTER_BOUND ( 'NONE', #220, .T. ) ;
#229 = AXIS2_PLACEMENT_3D ( 'NONE', #262, #47, #182 ) ;
#230 = ORIENTED_EDGE ( 'NONE', *, *, #238, .T. ) ;
#231 = DIRECTION ( 'NONE',  ( 0.0000000000000000000, -0.7071067811865489050, 0.7071067811865460184 ) ) ;
#232 = AXIS2_PLACEMENT_3D ( 'NONE', #135, #209, #132 ) ;
#233 = DIRECTION ( 'NONE',  ( 0.0000000000000000000, 3.901805859645347732E-17, -1.000000000000000000 ) ) ;
#234 = DIRECTION ( 'NONE',  ( 0.0000000000000000000, -1.000000000000000000, 0.0000000000000000000 ) ) ;
#235 = PLANE ( 'NONE',  #146 ) ;
#236 = ADVANCED_FACE ( 'NONE', ( #228 ), #250, .T. ) ;
#237 = CARTESIAN_POINT ( 'NONE',  ( 0.7815947082981407057, 1.542606201685716938, 3.246830598001249069 ) ) ;
#238 = EDGE_CURVE ( 'NONE', #148, #109, #82, .T. ) ;
#239 = CARTESIAN_POINT ( 'NONE',  ( 0.7815947082981407057, 1.542606201685716938, 3.017978284782742548 ) ) ;
#240 = DATE_AND_TIME ( #141, #2 ) ;
#241 = ORIENTED_EDGE ( 'NONE', *, *, #75, .T. ) ;
#242 = CC_DESIGN_PERSON_AND_ORGANIZATION_ASSIGNMENT ( #52, #115, ( #223 ) ) ;
#243 = FACE_OUTER_BOUND ( 'NONE', #58, .T. ) ;
#244 = LINE ( 'NONE', #118, #251 ) ;
#245 = CARTESIAN_POINT ( 'NONE',  ( 0.7815947082981407057, 1.542606201685717160, 3.246830598001249069 ) ) ;
#246 = ORIENTED_EDGE ( 'NONE', *, *, #289, .T. ) ;
#247 = AXIS2_PLACEMENT_3D ( 'NONE', #287, #112, #43 ) ;
#248 = APPROVAL_PERSON_ORGANIZATION ( #15, #28, #121 ) ;
#249 = EDGE_CURVE ( 'NONE', #25, #252, #18, .T. ) ;
#250 = CYLINDRICAL_SURFACE ( 'NONE', #116, 1.500000000000000000 ) ;
#251 = VECTOR ( 'NONE', #68, 1000.000000000000000 ) ;
#252 = VERTEX_POINT ( 'NONE', #34 ) ;
#253 = MANIFOLD_SOLID_BREP ( 'TTN162692-1-solid1', #259 ) ;
#254 = CC_DESIGN_PERSON_AND_ORGANIZATION_ASSIGNMENT ( #226, #22, ( #167 ) ) ;
#255 = ORIENTED_EDGE ( 'NONE', *, *, #65, .F. ) ;
#256 = ADVANCED_FACE ( 'NONE', ( #143 ), #88, .T. ) ;
#257 = DIRECTION ( 'NONE',  ( -0.0000000000000000000, -3.901805859645374233E-17, 1.000000000000000000 ) ) ;
#258 = LINE ( 'NONE', #71, #83 ) ;
#259 = CLOSED_SHELL ( 'NONE', ( #256, #33, #154, #288, #170, #236, #155, #129, #86 ) ) ;
#260 = DIRECTION ( 'NONE',  ( 0.0000000000000000000, -1.000000000000000000, -3.901805859645347732E-17 ) ) ;
#261 = UNCERTAINTY_MEASURE_WITH_UNIT (LENGTH_MEASURE( 1.000000000000000082E-05 ), #90, 'distance_accuracy_value', 'NONE');
#262 = CARTESIAN_POINT ( 'NONE',  ( 0.7815947082981407057, 1.542606201685716938, 2.967978284782742726 ) ) ;
#263 = CIRCLE ( 'NONE', #24, 1.500000000000000000 ) ;
#264 = PRODUCT_DEFINITION_SHAPE ( 'NONE', 'NONE',  #123 ) ;
#265 = EDGE_LOOP ( 'NONE', ( #13, #36, #230, #100 ) ) ;
#266 = CC_DESIGN_PERSON_AND_ORGANIZATION_ASSIGNMENT ( #107, #162, ( #57 ) ) ;
#267 =( NAMED_UNIT ( * ) PLANE_ANGLE_UNIT ( ) SI_UNIT ( $, .RADIAN. ) );
#268 = EDGE_CURVE ( 'NONE', #252, #25, #213, .T. ) ;
#269 = EDGE_LOOP ( 'NONE', ( #178, #202 ) ) ;
#270 = CARTESIAN_POINT ( 'NONE',  ( 0.7815947082981409277, 3.042606201685717160, 3.246830598001249069 ) ) ;
#271 = FACE_OUTER_BOUND ( 'NONE', #144, .T. ) ;
#272 = EDGE_CURVE ( 'NONE', #148, #137, #70, .T. ) ;
#273 = APPROVAL_STATUS ( 'not_yet_approved' ) ;
#274 = LOCAL_TIME ( 10, 4, 27.00000000000000000, #46 ) ;
#275 = ORIENTED_EDGE ( 'NONE', *, *, #27, .T. ) ;
#276 = VECTOR ( 'NONE', #192, 1000.000000000000000 ) ;
#277 = PERSON ( 'UNSPECIFIED', 'UNSPECIFIED', 'UNSPECIFIED', ('UNSPECIFIED'), ('UNSPECIFIED'), ('UNSPECIFIED') ) ;
#278 = PERSON_AND_ORGANIZATION ( #277, #99 ) ;
#279 = CC_DESIGN_APPROVAL ( #164, ( #223 ) ) ;
#280 = EDGE_LOOP ( 'NONE', ( #210, #125, #103 ) ) ;
#281 = CARTESIAN_POINT ( 'NONE',  ( 0.7815947082981407057, 1.542606201685716938, 3.017978284782742548 ) ) ;
#282 = DIRECTION ( 'NONE',  ( 0.0000000000000000000, -1.000000000000000000, 0.0000000000000000000 ) ) ;
#283 = DIRECTION ( 'NONE',  ( -0.0000000000000000000, -3.901805859645374233E-17, 1.000000000000000000 ) ) ;
#284 = VECTOR ( 'NONE', #231, 1000.000000000000114 ) ;
#285 = CC_DESIGN_DATE_AND_TIME_ASSIGNMENT ( #217, #60, ( #167 ) ) ;
#286 = ORIENTED_EDGE ( 'NONE', *, *, #289, .F. ) ;
#287 = CARTESIAN_POINT ( 'NONE',  ( 0.0000000000000000000, 0.0000000000000000000, 0.0000000000000000000 ) ) ;
#288 = ADVANCED_FACE ( 'NONE', ( #243 ), #147, .T. ) ;
#289 = EDGE_CURVE ( 'NONE', #161, #37, #291, .T. ) ;
#290 = APPLICATION_CONTEXT ( 'configuration controlled 3d designs of mechanical parts and assemblies' ) ;
#291 = CIRCLE ( 'NONE', #229, 1.500000000000000000 ) ;
#292 = ORIENTED_EDGE ( 'NONE', *, *, #204, .T. ) ;
#293 = AXIS2_PLACEMENT_3D ( 'NONE', #184, #218, #163 ) ;
#294 = DIRECTION ( 'NONE',  ( 0.0000000000000000000, 3.901805859645347732E-17, -1.000000000000000000 ) ) ;
#295 = CARTESIAN_POINT ( 'NONE',  ( 0.7815947082981407057, 1.542606201685717160, -1.461169401998751338 ) ) ;
#296 = CONICAL_SURFACE ( 'NONE', #126, 1.500000000000000000, 0.7853981633974526089 ) ;
#297 = DIRECTION ( 'NONE',  ( -0.0000000000000000000, -3.901805859645347732E-17, 1.000000000000000000 ) ) ;
#298 = FACE_OUTER_BOUND ( 'NONE', #269, .T. ) ;
#299 = ORIENTED_EDGE ( 'NONE', *, *, #134, .F. ) ;
#300 = AXIS2_PLACEMENT_3D ( 'NONE', #239, #216, #17 ) ;
#301 = CONICAL_SURFACE ( 'NONE', #108, 1.500000000000000000, 0.7853981633974526089 ) ;
ENDSEC;
END-ISO-10303-21;
