ISO-10303-21;
HEADER;
FILE_DESCRIPTION (( 'STEP AP203' ),
    '1' );
FILE_NAME ('ISP DLC Silicon_16816.step',
    '2021-01-06T00:46:39',
    ( '' ),
    ( '' ),
    'SwSTEP 2.0',
    'SolidWorks 2018',
    '' );
FILE_SCHEMA (( 'CONFIG_CONTROL_DESIGN' ));
ENDSEC;

DATA;
#1 = CARTESIAN_POINT ( 'NONE',  ( 0.0000000000000000000, 0.0000000000000000000, 0.0000000000000000000 ) ) ;
#2 = APPLICATION_PROTOCOL_DEFINITION ( 'international standard', 'config_control_design', 1994, #154 ) ;
#3 = ORIENTED_EDGE ( 'NONE', *, *, #29, .T. ) ;
#4 = CC_DESIGN_SECURITY_CLASSIFICATION ( #97, ( #115 ) ) ;
#5 = CALENDAR_DATE ( 2021, 5, 1 ) ;
#6 = COORDINATED_UNIVERSAL_TIME_OFFSET ( 5, 0, .BEHIND. ) ;
#7 = PERSON ( 'UNSPECIFIED', 'UNSPECIFIED', 'UNSPECIFIED', ('UNSPECIFIED'), ('UNSPECIFIED'), ('UNSPECIFIED') ) ;
#8 = EDGE_CURVE ( 'NONE', #141, #38, #20, .T. ) ;
#9 = AXIS2_PLACEMENT_3D ( 'NONE', #1, #101, #73 ) ;
#10 = VERTEX_POINT ( 'NONE', #134 ) ;
#11 = EDGE_CURVE ( 'NONE', #173, #10, #91, .T. ) ;
#12 = CARTESIAN_POINT ( 'NONE',  ( 0.0000000000000000000, 0.0000000000000000000, 2.000000000000000000 ) ) ;
#13 = PRODUCT_RELATED_PRODUCT_CATEGORY ( 'detail', '', ( #166 ) ) ;
#14 = DIRECTION ( 'NONE',  ( 0.0000000000000000000, 0.0000000000000000000, 1.000000000000000000 ) ) ;
#15 = DIRECTION ( 'NONE',  ( -0.0000000000000000000, -0.0000000000000000000, -1.000000000000000000 ) ) ;
#16 = DIRECTION ( 'NONE',  ( -0.0000000000000000000, -0.0000000000000000000, -1.000000000000000000 ) ) ;
#17 = DIRECTION ( 'NONE',  ( 0.0000000000000000000, 0.0000000000000000000, 1.000000000000000000 ) ) ;
#18 =( NAMED_UNIT ( * ) SI_UNIT ( $, .STERADIAN. ) SOLID_ANGLE_UNIT ( ) );
#19 = CC_DESIGN_PERSON_AND_ORGANIZATION_ASSIGNMENT ( #110, #111, ( #166 ) ) ;
#20 = LINE ( 'NONE', #118, #107 ) ;
#21 = CARTESIAN_POINT ( 'NONE',  ( 0.0000000000000000000, 0.0000000000000000000, 0.0000000000000000000 ) ) ;
#22 = CC_DESIGN_PERSON_AND_ORGANIZATION_ASSIGNMENT ( #93, #49, ( #115 ) ) ;
#23 = AXIS2_PLACEMENT_3D ( 'NONE', #119, #57, #84 ) ;
#24 = LOCAL_TIME ( 19, 46, 39.00000000000000000, #138 ) ;
#25 = ADVANCED_BREP_SHAPE_REPRESENTATION ( 'ISP DLC Silicon_16816', ( #88, #106 ), #42 ) ;
#26 = LOCAL_TIME ( 19, 46, 39.00000000000000000, #61 ) ;
#27 = APPROVAL ( #48, 'UNSPECIFIED' ) ;
#28 = CARTESIAN_POINT ( 'NONE',  ( -12.69999999999999929, 0.0000000000000000000, 2.000000000000000000 ) ) ;
#29 = EDGE_CURVE ( 'NONE', #141, #173, #95, .T. ) ;
#30 = DIRECTION ( 'NONE',  ( -0.0000000000000000000, -0.0000000000000000000, -1.000000000000000000 ) ) ;
#31 = AXIS2_PLACEMENT_3D ( 'NONE', #146, #30, #46 ) ;
#32 = PERSON_AND_ORGANIZATION ( #7, #117 ) ;
#33 = DATE_TIME_ROLE ( 'classification_date' ) ;
#34 = APPLICATION_CONTEXT ( 'configuration controlled 3d designs of mechanical parts and assemblies' ) ;
#35 = SECURITY_CLASSIFICATION_LEVEL ( 'unclassified' ) ;
#36 = CC_DESIGN_APPROVAL ( #161, ( #97 ) ) ;
#37 = DATE_AND_TIME ( #5, #131 ) ;
#38 = VERTEX_POINT ( 'NONE', #120 ) ;
#39 = AXIS2_PLACEMENT_3D ( 'NONE', #12, #70, #149 ) ;
#40 = ORIENTED_EDGE ( 'NONE', *, *, #29, .F. ) ;
#41 = DATE_AND_TIME ( #76, #144 ) ;
#42 =( GEOMETRIC_REPRESENTATION_CONTEXT ( 3 ) GLOBAL_UNCERTAINTY_ASSIGNED_CONTEXT ( ( #51 ) ) GLOBAL_UNIT_ASSIGNED_CONTEXT ( ( #152, #47, #18 ) ) REPRESENTATION_CONTEXT ( 'NONE', 'WORKASPACE' ) );
#43 = DESIGN_CONTEXT ( 'detailed design', #34, 'design' ) ;
#44 = DIRECTION ( 'NONE',  ( 1.000000000000000000, 0.0000000000000000000, -0.0000000000000000000 ) ) ;
#45 = DIRECTION ( 'NONE',  ( 0.0000000000000000000, 0.0000000000000000000, 1.000000000000000000 ) ) ;
#46 = DIRECTION ( 'NONE',  ( -1.000000000000000000, 0.0000000000000000000, 0.0000000000000000000 ) ) ;
#47 =( NAMED_UNIT ( * ) PLANE_ANGLE_UNIT ( ) SI_UNIT ( $, .RADIAN. ) );
#48 = APPROVAL_STATUS ( 'not_yet_approved' ) ;
#49 = PERSON_AND_ORGANIZATION_ROLE ( 'design_supplier' ) ;
#50 = FACE_OUTER_BOUND ( 'NONE', #135, .T. ) ;
#51 = UNCERTAINTY_MEASURE_WITH_UNIT (LENGTH_MEASURE( 1.000000000000000082E-05 ), #152, 'distance_accuracy_value', 'NONE');
#52 = CIRCLE ( 'NONE', #39, 12.69999999999999929 ) ;
#53 = EDGE_CURVE ( 'NONE', #173, #141, #52, .T. ) ;
#54 = CYLINDRICAL_SURFACE ( 'NONE', #31, 12.69999999999999929 ) ;
#55 = FACE_OUTER_BOUND ( 'NONE', #139, .T. ) ;
#56 = DIRECTION ( 'NONE',  ( 1.000000000000000000, 0.0000000000000000000, 0.0000000000000000000 ) ) ;
#57 = DIRECTION ( 'NONE',  ( 0.0000000000000000000, 0.0000000000000000000, 1.000000000000000000 ) ) ;
#58 = DIRECTION ( 'NONE',  ( 0.0000000000000000000, 0.0000000000000000000, 1.000000000000000000 ) ) ;
#59 = PLANE ( 'NONE',  #133 ) ;
#60 = CC_DESIGN_PERSON_AND_ORGANIZATION_ASSIGNMENT ( #103, #163, ( #97 ) ) ;
#61 = COORDINATED_UNIVERSAL_TIME_OFFSET ( 5, 0, .BEHIND. ) ;
#62 = FACE_OUTER_BOUND ( 'NONE', #87, .T. ) ;
#63 = APPROVAL_STATUS ( 'not_yet_approved' ) ;
#64 = CALENDAR_DATE ( 2021, 5, 1 ) ;
#65 = CIRCLE ( 'NONE', #174, 12.69999999999999929 ) ;
#66 = SHAPE_DEFINITION_REPRESENTATION ( #136, #25 ) ;
#67 = CARTESIAN_POINT ( 'NONE',  ( 12.69999999999999929, 1.555301434917138433E-15, 2.000000000000000000 ) ) ;
#68 = PERSON_AND_ORGANIZATION ( #7, #117 ) ;
#69 = CARTESIAN_POINT ( 'NONE',  ( -12.69999999999999929, 0.0000000000000000000, 2.000000000000000000 ) ) ;
#70 = DIRECTION ( 'NONE',  ( 0.0000000000000000000, 0.0000000000000000000, 1.000000000000000000 ) ) ;
#71 = EDGE_LOOP ( 'NONE', ( #102, #3 ) ) ;
#72 = DIRECTION ( 'NONE',  ( 1.000000000000000000, 0.0000000000000000000, 0.0000000000000000000 ) ) ;
#73 = DIRECTION ( 'NONE',  ( 1.000000000000000000, 0.0000000000000000000, -0.0000000000000000000 ) ) ;
#74 = CYLINDRICAL_SURFACE ( 'NONE', #165, 12.69999999999999929 ) ;
#75 = COORDINATED_UNIVERSAL_TIME_OFFSET ( 5, 0, .BEHIND. ) ;
#76 = CALENDAR_DATE ( 2021, 5, 1 ) ;
#77 = CC_DESIGN_APPROVAL ( #27, ( #115 ) ) ;
#78 = CIRCLE ( 'NONE', #23, 12.69999999999999929 ) ;
#79 = CC_DESIGN_PERSON_AND_ORGANIZATION_ASSIGNMENT ( #32, #150, ( #155 ) ) ;
#80 = ORIENTED_EDGE ( 'NONE', *, *, #8, .F. ) ;
#81 = EDGE_CURVE ( 'NONE', #38, #10, #65, .T. ) ;
#82 = ORIENTED_EDGE ( 'NONE', *, *, #11, .T. ) ;
#83 = DIRECTION ( 'NONE',  ( -1.000000000000000000, 0.0000000000000000000, 0.0000000000000000000 ) ) ;
#84 = DIRECTION ( 'NONE',  ( 1.000000000000000000, 0.0000000000000000000, 0.0000000000000000000 ) ) ;
#85 = ADVANCED_FACE ( 'NONE', ( #157 ), #59, .T. ) ;
#86 = CARTESIAN_POINT ( 'NONE',  ( 0.0000000000000000000, 0.0000000000000000000, 2.000000000000000000 ) ) ;
#87 = EDGE_LOOP ( 'NONE', ( #80, #159, #82, #151 ) ) ;
#88 = MANIFOLD_SOLID_BREP ( 'Boss-Extrude1', #121 ) ;
#89 = APPLICATION_PROTOCOL_DEFINITION ( 'international standard', 'config_control_design', 1994, #34 ) ;
#90 = APPROVAL_ROLE ( '' ) ;
#91 = LINE ( 'NONE', #28, #145 ) ;
#92 = ORIENTED_EDGE ( 'NONE', *, *, #81, .T. ) ;
#93 = PERSON_AND_ORGANIZATION ( #7, #117 ) ;
#94 = APPROVAL_DATE_TIME ( #128, #161 ) ;
#95 = CIRCLE ( 'NONE', #100, 12.69999999999999929 ) ;
#96 = DIRECTION ( 'NONE',  ( 1.000000000000000000, 0.0000000000000000000, 0.0000000000000000000 ) ) ;
#97 = SECURITY_CLASSIFICATION ( '', '', #35 ) ;
#98 = DATE_AND_TIME ( #64, #24 ) ;
#99 = ORIENTED_EDGE ( 'NONE', *, *, #11, .F. ) ;
#100 = AXIS2_PLACEMENT_3D ( 'NONE', #172, #14, #96 ) ;
#101 = DIRECTION ( 'NONE',  ( 0.0000000000000000000, 0.0000000000000000000, 1.000000000000000000 ) ) ;
#102 = ORIENTED_EDGE ( 'NONE', *, *, #53, .T. ) ;
#103 = PERSON_AND_ORGANIZATION ( #7, #117 ) ;
#104 = ORIENTED_EDGE ( 'NONE', *, *, #129, .F. ) ;
#105 = ADVANCED_FACE ( 'NONE', ( #62 ), #74, .T. ) ;
#106 = AXIS2_PLACEMENT_3D ( 'NONE', #21, #17, #72 ) ;
#107 = VECTOR ( 'NONE', #132, 1000.000000000000000 ) ;
#108 = CARTESIAN_POINT ( 'NONE',  ( 0.0000000000000000000, 0.0000000000000000000, 2.000000000000000000 ) ) ;
#109 = APPROVAL_PERSON_ORGANIZATION ( #68, #161, #137 ) ;
#110 = PERSON_AND_ORGANIZATION ( #7, #117 ) ;
#111 = PERSON_AND_ORGANIZATION_ROLE ( 'design_owner' ) ;
#112 = MECHANICAL_CONTEXT ( 'NONE', #154, 'mechanical' ) ;
#113 = PERSON_AND_ORGANIZATION_ROLE ( 'creator' ) ;
#114 = APPROVAL_PERSON_ORGANIZATION ( #148, #158, #124 ) ;
#115 = PRODUCT_DEFINITION_FORMATION_WITH_SPECIFIED_SOURCE ( 'ANY', '', #166, .NOT_KNOWN. ) ;
#116 = CALENDAR_DATE ( 2021, 5, 1 ) ;
#117 = ORGANIZATION ( 'UNSPECIFIED', 'UNSPECIFIED', '' ) ;
#118 = CARTESIAN_POINT ( 'NONE',  ( 12.69999999999999929, 1.555301434917138433E-15, 2.000000000000000000 ) ) ;
#119 = CARTESIAN_POINT ( 'NONE',  ( 0.0000000000000000000, 0.0000000000000000000, 0.0000000000000000000 ) ) ;
#120 = CARTESIAN_POINT ( 'NONE',  ( 12.69999999999999929, 1.555301434917138433E-15, 0.0000000000000000000 ) ) ;
#121 = CLOSED_SHELL ( 'NONE', ( #142, #105, #85, #170 ) ) ;
#122 = APPROVAL_STATUS ( 'not_yet_approved' ) ;
#123 = CALENDAR_DATE ( 2021, 5, 1 ) ;
#124 = APPROVAL_ROLE ( '' ) ;
#125 = DATE_TIME_ROLE ( 'creation_date' ) ;
#126 = APPROVAL_DATE_TIME ( #130, #27 ) ;
#127 = ORIENTED_EDGE ( 'NONE', *, *, #81, .F. ) ;
#128 = DATE_AND_TIME ( #116, #164 ) ;
#129 = EDGE_CURVE ( 'NONE', #10, #38, #78, .T. ) ;
#130 = DATE_AND_TIME ( #123, #26 ) ;
#131 = LOCAL_TIME ( 19, 46, 39.00000000000000000, #167 ) ;
#132 = DIRECTION ( 'NONE',  ( -0.0000000000000000000, -0.0000000000000000000, -1.000000000000000000 ) ) ;
#133 = AXIS2_PLACEMENT_3D ( 'NONE', #108, #58, #44 ) ;
#134 = CARTESIAN_POINT ( 'NONE',  ( -12.69999999999999929, 0.0000000000000000000, 0.0000000000000000000 ) ) ;
#135 = EDGE_LOOP ( 'NONE', ( #40, #171, #92, #99 ) ) ;
#136 = PRODUCT_DEFINITION_SHAPE ( 'NONE', 'NONE',  #155 ) ;
#137 = APPROVAL_ROLE ( '' ) ;
#138 = COORDINATED_UNIVERSAL_TIME_OFFSET ( 5, 0, .BEHIND. ) ;
#139 = EDGE_LOOP ( 'NONE', ( #104, #127 ) ) ;
#140 = CC_DESIGN_PERSON_AND_ORGANIZATION_ASSIGNMENT ( #143, #113, ( #115 ) ) ;
#141 = VERTEX_POINT ( 'NONE', #67 ) ;
#142 = ADVANCED_FACE ( 'NONE', ( #50 ), #54, .T. ) ;
#143 = PERSON_AND_ORGANIZATION ( #7, #117 ) ;
#144 = LOCAL_TIME ( 19, 46, 39.00000000000000000, #6 ) ;
#145 = VECTOR ( 'NONE', #15, 1000.000000000000000 ) ;
#146 = CARTESIAN_POINT ( 'NONE',  ( 0.0000000000000000000, 0.0000000000000000000, 2.000000000000000000 ) ) ;
#147 = CC_DESIGN_DATE_AND_TIME_ASSIGNMENT ( #37, #125, ( #155 ) ) ;
#148 = PERSON_AND_ORGANIZATION ( #7, #117 ) ;
#149 = DIRECTION ( 'NONE',  ( 1.000000000000000000, 0.0000000000000000000, 0.0000000000000000000 ) ) ;
#150 = PERSON_AND_ORGANIZATION_ROLE ( 'creator' ) ;
#151 = ORIENTED_EDGE ( 'NONE', *, *, #129, .T. ) ;
#152 =( LENGTH_UNIT ( ) NAMED_UNIT ( * ) SI_UNIT ( .MILLI., .METRE. ) );
#153 = CC_DESIGN_DATE_AND_TIME_ASSIGNMENT ( #98, #33, ( #97 ) ) ;
#154 = APPLICATION_CONTEXT ( 'configuration controlled 3d designs of mechanical parts and assemblies' ) ;
#155 = PRODUCT_DEFINITION ( 'UNKNOWN', '', #115, #43 ) ;
#156 = PERSON_AND_ORGANIZATION ( #7, #117 ) ;
#157 = FACE_OUTER_BOUND ( 'NONE', #71, .T. ) ;
#158 = APPROVAL ( #63, 'UNSPECIFIED' ) ;
#159 = ORIENTED_EDGE ( 'NONE', *, *, #53, .F. ) ;
#160 = CARTESIAN_POINT ( 'NONE',  ( 0.0000000000000000000, 0.0000000000000000000, 0.0000000000000000000 ) ) ;
#161 = APPROVAL ( #122, 'UNSPECIFIED' ) ;
#162 = PLANE ( 'NONE',  #9 ) ;
#163 = PERSON_AND_ORGANIZATION_ROLE ( 'classification_officer' ) ;
#164 = LOCAL_TIME ( 19, 46, 39.00000000000000000, #75 ) ;
#165 = AXIS2_PLACEMENT_3D ( 'NONE', #86, #16, #83 ) ;
#166 = PRODUCT ( 'ISP DLC Silicon_16816', 'ISP DLC Silicon_16816', '', ( #112 ) ) ;
#167 = COORDINATED_UNIVERSAL_TIME_OFFSET ( 5, 0, .BEHIND. ) ;
#168 = CC_DESIGN_APPROVAL ( #158, ( #155 ) ) ;
#169 = APPROVAL_PERSON_ORGANIZATION ( #156, #27, #90 ) ;
#170 = ADVANCED_FACE ( 'NONE', ( #55 ), #162, .F. ) ;
#171 = ORIENTED_EDGE ( 'NONE', *, *, #8, .T. ) ;
#172 = CARTESIAN_POINT ( 'NONE',  ( 0.0000000000000000000, 0.0000000000000000000, 2.000000000000000000 ) ) ;
#173 = VERTEX_POINT ( 'NONE', #69 ) ;
#174 = AXIS2_PLACEMENT_3D ( 'NONE', #160, #45, #56 ) ;
#175 = APPROVAL_DATE_TIME ( #41, #158 ) ;
ENDSEC;
END-ISO-10303-21;
