ISO-10303-21;
HEADER;
FILE_DESCRIPTION (( 'STEP AP203' ),
    '1' );
FILE_NAME ('Web Model 14966_14992.step',
    '2020-07-27T18:46:55',
    ( '' ),
    ( '' ),
    'SwSTEP 2.0',
    'SolidWorks 2018',
    '' );
FILE_SCHEMA (( 'CONFIG_CONTROL_DESIGN' ));
ENDSEC;

DATA;
#1 = CARTESIAN_POINT ( 'NONE',  ( -2.000000000000000000, 3.061616997868383043E-15, -25.00000000000000000 ) ) ;
#2 = DATE_AND_TIME ( #123, #155 ) ;
#3 = DIRECTION ( 'NONE',  ( 1.000000000000000000, 0.0000000000000000000, 0.0000000000000000000 ) ) ;
#4 = DIRECTION ( 'NONE',  ( -1.000000000000000000, -0.0000000000000000000, -0.0000000000000000000 ) ) ;
#5 = CIRCLE ( 'NONE', #14, 25.00000000000000000 ) ;
#6 = CC_DESIGN_APPROVAL ( #147, ( #138 ) ) ;
#7 = APPROVAL_ROLE ( '' ) ;
#8 = CALENDAR_DATE ( 2020, 27, 7 ) ;
#9 = APPLICATION_CONTEXT ( 'configuration controlled 3d designs of mechanical parts and assemblies' ) ;
#10 = FACE_OUTER_BOUND ( 'NONE', #105, .T. ) ;
#11 = ORIENTED_EDGE ( 'NONE', *, *, #23, .T. ) ;
#12 = ORIENTED_EDGE ( 'NONE', *, *, #89, .T. ) ;
#13 = CARTESIAN_POINT ( 'NONE',  ( 2.000000000000000000, 0.0000000000000000000, 0.0000000000000000000 ) ) ;
#14 = AXIS2_PLACEMENT_3D ( 'NONE', #19, #122, #28 ) ;
#15 = COORDINATED_UNIVERSAL_TIME_OFFSET ( 5, 0, .BEHIND. ) ;
#16 = FACE_OUTER_BOUND ( 'NONE', #69, .T. ) ;
#17 =( GEOMETRIC_REPRESENTATION_CONTEXT ( 3 ) GLOBAL_UNCERTAINTY_ASSIGNED_CONTEXT ( ( #86 ) ) GLOBAL_UNIT_ASSIGNED_CONTEXT ( ( #99, #40, #166 ) ) REPRESENTATION_CONTEXT ( 'NONE', 'WORKASPACE' ) );
#18 = DIRECTION ( 'NONE',  ( 0.0000000000000000000, 0.0000000000000000000, -1.000000000000000000 ) ) ;
#19 = CARTESIAN_POINT ( 'NONE',  ( 2.000000000000000000, 0.0000000000000000000, 0.0000000000000000000 ) ) ;
#20 = ADVANCED_BREP_SHAPE_REPRESENTATION ( 'Web Model 14966_14992', ( #66, #153 ), #17 ) ;
#21 = ADVANCED_FACE ( 'NONE', ( #10 ), #96, .T. ) ;
#22 = CARTESIAN_POINT ( 'NONE',  ( 2.000000000000000000, 0.0000000000000000000, 25.00000000000000000 ) ) ;
#23 = EDGE_CURVE ( 'NONE', #72, #101, #25, .T. ) ;
#24 = DATE_AND_TIME ( #46, #76 ) ;
#25 = CIRCLE ( 'NONE', #107, 25.00000000000000000 ) ;
#26 = DIRECTION ( 'NONE',  ( -1.000000000000000000, -0.0000000000000000000, -0.0000000000000000000 ) ) ;
#27 = SHAPE_DEFINITION_REPRESENTATION ( #70, #20 ) ;
#28 = DIRECTION ( 'NONE',  ( 0.0000000000000000000, 0.0000000000000000000, -1.000000000000000000 ) ) ;
#29 = PLANE ( 'NONE',  #139 ) ;
#30 = CARTESIAN_POINT ( 'NONE',  ( -2.000000000000000000, 0.0000000000000000000, 0.0000000000000000000 ) ) ;
#31 = AXIS2_PLACEMENT_3D ( 'NONE', #136, #50, #77 ) ;
#32 = DATE_TIME_ROLE ( 'classification_date' ) ;
#33 = APPLICATION_PROTOCOL_DEFINITION ( 'international standard', 'config_control_design', 1994, #9 ) ;
#34 = APPROVAL_STATUS ( 'not_yet_approved' ) ;
#35 = APPROVAL_DATE_TIME ( #45, #114 ) ;
#36 = CLOSED_SHELL ( 'NONE', ( #21, #112, #75, #44 ) ) ;
#37 = COORDINATED_UNIVERSAL_TIME_OFFSET ( 5, 0, .BEHIND. ) ;
#38 = EDGE_CURVE ( 'NONE', #168, #72, #67, .T. ) ;
#39 = DIRECTION ( 'NONE',  ( 0.0000000000000000000, 0.0000000000000000000, 1.000000000000000000 ) ) ;
#40 =( NAMED_UNIT ( * ) PLANE_ANGLE_UNIT ( ) SI_UNIT ( $, .RADIAN. ) );
#41 = CIRCLE ( 'NONE', #145, 25.00000000000000000 ) ;
#42 = CARTESIAN_POINT ( 'NONE',  ( 2.000000000000000000, 3.061616997868383043E-15, -25.00000000000000000 ) ) ;
#43 = DIRECTION ( 'NONE',  ( 0.0000000000000000000, 0.0000000000000000000, -1.000000000000000000 ) ) ;
#44 = ADVANCED_FACE ( 'NONE', ( #16 ), #51, .F. ) ;
#45 = DATE_AND_TIME ( #8, #157 ) ;
#46 = CALENDAR_DATE ( 2020, 27, 7 ) ;
#47 = DIRECTION ( 'NONE',  ( -1.000000000000000000, -0.0000000000000000000, -0.0000000000000000000 ) ) ;
#48 = ORIENTED_EDGE ( 'NONE', *, *, #38, .T. ) ;
#49 = VECTOR ( 'NONE', #26, 1000.000000000000000 ) ;
#50 = DIRECTION ( 'NONE',  ( 1.000000000000000000, 0.0000000000000000000, 0.0000000000000000000 ) ) ;
#51 = PLANE ( 'NONE',  #81 ) ;
#52 = AXIS2_PLACEMENT_3D ( 'NONE', #60, #113, #39 ) ;
#53 = PERSON_AND_ORGANIZATION_ROLE ( 'design_owner' ) ;
#54 = LOCAL_TIME ( 14, 46, 55.00000000000000000, #135 ) ;
#55 = APPROVAL_STATUS ( 'not_yet_approved' ) ;
#56 = EDGE_LOOP ( 'NONE', ( #94, #164, #48, #11 ) ) ;
#57 = COORDINATED_UNIVERSAL_TIME_OFFSET ( 5, 0, .BEHIND. ) ;
#58 = CC_DESIGN_DATE_AND_TIME_ASSIGNMENT ( #24, #32, ( #104 ) ) ;
#59 = CARTESIAN_POINT ( 'NONE',  ( 2.000000000000000000, 0.0000000000000000000, 25.00000000000000000 ) ) ;
#60 = CARTESIAN_POINT ( 'NONE',  ( 2.000000000000000000, 0.0000000000000000000, 0.0000000000000000000 ) ) ;
#61 = PERSON_AND_ORGANIZATION ( #158, #73 ) ;
#62 = PERSON_AND_ORGANIZATION ( #158, #73 ) ;
#63 = ORIENTED_EDGE ( 'NONE', *, *, #172, .F. ) ;
#64 = DATE_TIME_ROLE ( 'creation_date' ) ;
#65 = PERSON_AND_ORGANIZATION_ROLE ( 'creator' ) ;
#66 = MANIFOLD_SOLID_BREP ( 'Boss-Extrude1', #36 ) ;
#67 = LINE ( 'NONE', #22, #49 ) ;
#68 = DESIGN_CONTEXT ( 'detailed design', #9, 'design' ) ;
#69 = EDGE_LOOP ( 'NONE', ( #108, #90 ) ) ;
#70 = PRODUCT_DEFINITION_SHAPE ( 'NONE', 'NONE',  #138 ) ;
#71 = CC_DESIGN_SECURITY_CLASSIFICATION ( #104, ( #118 ) ) ;
#72 = VERTEX_POINT ( 'NONE', #149 ) ;
#73 = ORGANIZATION ( 'UNSPECIFIED', 'UNSPECIFIED', '' ) ;
#74 = VERTEX_POINT ( 'NONE', #42 ) ;
#75 = ADVANCED_FACE ( 'NONE', ( #173 ), #29, .T. ) ;
#76 = LOCAL_TIME ( 14, 46, 55.00000000000000000, #140 ) ;
#77 = DIRECTION ( 'NONE',  ( 0.0000000000000000000, 0.0000000000000000000, -1.000000000000000000 ) ) ;
#78 = DIRECTION ( 'NONE',  ( 0.0000000000000000000, 0.0000000000000000000, 1.000000000000000000 ) ) ;
#79 = CC_DESIGN_PERSON_AND_ORGANIZATION_ASSIGNMENT ( #159, #152, ( #118 ) ) ;
#80 = CARTESIAN_POINT ( 'NONE',  ( 2.000000000000000000, 3.061616997868383043E-15, -25.00000000000000000 ) ) ;
#81 = AXIS2_PLACEMENT_3D ( 'NONE', #30, #133, #43 ) ;
#82 = VECTOR ( 'NONE', #4, 1000.000000000000000 ) ;
#83 = CIRCLE ( 'NONE', #31, 25.00000000000000000 ) ;
#84 = DIRECTION ( 'NONE',  ( 1.000000000000000000, 0.0000000000000000000, 0.0000000000000000000 ) ) ;
#85 = MECHANICAL_CONTEXT ( 'NONE', #110, 'mechanical' ) ;
#86 = UNCERTAINTY_MEASURE_WITH_UNIT (LENGTH_MEASURE( 1.000000000000000082E-05 ), #99, 'distance_accuracy_value', 'NONE');
#87 = ORIENTED_EDGE ( 'NONE', *, *, #172, .T. ) ;
#88 = PERSON_AND_ORGANIZATION ( #158, #73 ) ;
#89 = EDGE_CURVE ( 'NONE', #74, #101, #120, .T. ) ;
#90 = ORIENTED_EDGE ( 'NONE', *, *, #119, .F. ) ;
#91 = APPROVAL_DATE_TIME ( #126, #144 ) ;
#92 = CC_DESIGN_PERSON_AND_ORGANIZATION_ASSIGNMENT ( #109, #53, ( #143 ) ) ;
#93 = ORIENTED_EDGE ( 'NONE', *, *, #119, .T. ) ;
#94 = ORIENTED_EDGE ( 'NONE', *, *, #89, .F. ) ;
#95 = APPROVAL_DATE_TIME ( #171, #147 ) ;
#96 = CYLINDRICAL_SURFACE ( 'NONE', #52, 25.00000000000000000 ) ;
#97 = CARTESIAN_POINT ( 'NONE',  ( -2.000000000000000000, 0.0000000000000000000, 0.0000000000000000000 ) ) ;
#98 = CARTESIAN_POINT ( 'NONE',  ( -2.000000000000000000, 0.0000000000000000000, 0.0000000000000000000 ) ) ;
#99 =( LENGTH_UNIT ( ) NAMED_UNIT ( * ) SI_UNIT ( .MILLI., .METRE. ) );
#100 = CC_DESIGN_PERSON_AND_ORGANIZATION_ASSIGNMENT ( #170, #142, ( #138 ) ) ;
#101 = VERTEX_POINT ( 'NONE', #1 ) ;
#102 = EDGE_LOOP ( 'NONE', ( #116, #87 ) ) ;
#103 = APPROVAL_PERSON_ORGANIZATION ( #62, #147, #154 ) ;
#104 = SECURITY_CLASSIFICATION ( '', '', #151 ) ;
#105 = EDGE_LOOP ( 'NONE', ( #63, #12, #93, #124 ) ) ;
#106 = PRODUCT_RELATED_PRODUCT_CATEGORY ( 'detail', '', ( #143 ) ) ;
#107 = AXIS2_PLACEMENT_3D ( 'NONE', #97, #167, #131 ) ;
#108 = ORIENTED_EDGE ( 'NONE', *, *, #23, .F. ) ;
#109 = PERSON_AND_ORGANIZATION ( #158, #73 ) ;
#110 = APPLICATION_CONTEXT ( 'configuration controlled 3d designs of mechanical parts and assemblies' ) ;
#111 = CC_DESIGN_DATE_AND_TIME_ASSIGNMENT ( #2, #64, ( #138 ) ) ;
#112 = ADVANCED_FACE ( 'NONE', ( #148 ), #117, .T. ) ;
#113 = DIRECTION ( 'NONE',  ( -1.000000000000000000, -0.0000000000000000000, -0.0000000000000000000 ) ) ;
#114 = APPROVAL ( #55, 'UNSPECIFIED' ) ;
#115 = APPROVAL_ROLE ( '' ) ;
#116 = ORIENTED_EDGE ( 'NONE', *, *, #132, .T. ) ;
#117 = CYLINDRICAL_SURFACE ( 'NONE', #129, 25.00000000000000000 ) ;
#118 = PRODUCT_DEFINITION_FORMATION_WITH_SPECIFIED_SOURCE ( 'ANY', '', #143, .NOT_KNOWN. ) ;
#119 = EDGE_CURVE ( 'NONE', #101, #72, #41, .T. ) ;
#120 = LINE ( 'NONE', #80, #82 ) ;
#121 = DIRECTION ( 'NONE',  ( 1.000000000000000000, 0.0000000000000000000, 0.0000000000000000000 ) ) ;
#122 = DIRECTION ( 'NONE',  ( 1.000000000000000000, 0.0000000000000000000, 0.0000000000000000000 ) ) ;
#123 = CALENDAR_DATE ( 2020, 27, 7 ) ;
#124 = ORIENTED_EDGE ( 'NONE', *, *, #38, .F. ) ;
#125 = CC_DESIGN_PERSON_AND_ORGANIZATION_ASSIGNMENT ( #150, #169, ( #104 ) ) ;
#126 = DATE_AND_TIME ( #162, #54 ) ;
#127 = APPROVAL_STATUS ( 'not_yet_approved' ) ;
#128 = CC_DESIGN_APPROVAL ( #144, ( #118 ) ) ;
#129 = AXIS2_PLACEMENT_3D ( 'NONE', #13, #47, #78 ) ;
#130 = CALENDAR_DATE ( 2020, 27, 7 ) ;
#131 = DIRECTION ( 'NONE',  ( 0.0000000000000000000, 0.0000000000000000000, -1.000000000000000000 ) ) ;
#132 = EDGE_CURVE ( 'NONE', #168, #74, #5, .T. ) ;
#133 = DIRECTION ( 'NONE',  ( 1.000000000000000000, 0.0000000000000000000, 0.0000000000000000000 ) ) ;
#134 = CARTESIAN_POINT ( 'NONE',  ( 2.000000000000000000, 0.0000000000000000000, 0.0000000000000000000 ) ) ;
#135 = COORDINATED_UNIVERSAL_TIME_OFFSET ( 5, 0, .BEHIND. ) ;
#136 = CARTESIAN_POINT ( 'NONE',  ( 2.000000000000000000, 0.0000000000000000000, 0.0000000000000000000 ) ) ;
#137 = DIRECTION ( 'NONE',  ( 0.0000000000000000000, 0.0000000000000000000, -1.000000000000000000 ) ) ;
#138 = PRODUCT_DEFINITION ( 'UNKNOWN', '', #118, #68 ) ;
#139 = AXIS2_PLACEMENT_3D ( 'NONE', #134, #121, #137 ) ;
#140 = COORDINATED_UNIVERSAL_TIME_OFFSET ( 5, 0, .BEHIND. ) ;
#141 = APPLICATION_PROTOCOL_DEFINITION ( 'international standard', 'config_control_design', 1994, #110 ) ;
#142 = PERSON_AND_ORGANIZATION_ROLE ( 'creator' ) ;
#143 = PRODUCT ( 'Web Model 14966_14992', 'Web Model 14966_14992', '', ( #85 ) ) ;
#144 = APPROVAL ( #127, 'UNSPECIFIED' ) ;
#145 = AXIS2_PLACEMENT_3D ( 'NONE', #98, #3, #18 ) ;
#146 = APPROVAL_PERSON_ORGANIZATION ( #88, #114, #115 ) ;
#147 = APPROVAL ( #34, 'UNSPECIFIED' ) ;
#148 = FACE_OUTER_BOUND ( 'NONE', #56, .T. ) ;
#149 = CARTESIAN_POINT ( 'NONE',  ( -2.000000000000000000, 0.0000000000000000000, 25.00000000000000000 ) ) ;
#150 = PERSON_AND_ORGANIZATION ( #158, #73 ) ;
#151 = SECURITY_CLASSIFICATION_LEVEL ( 'unclassified' ) ;
#152 = PERSON_AND_ORGANIZATION_ROLE ( 'design_supplier' ) ;
#153 = AXIS2_PLACEMENT_3D ( 'NONE', #161, #165, #84 ) ;
#154 = APPROVAL_ROLE ( '' ) ;
#155 = LOCAL_TIME ( 14, 46, 55.00000000000000000, #57 ) ;
#156 = PERSON_AND_ORGANIZATION ( #158, #73 ) ;
#157 = LOCAL_TIME ( 14, 46, 55.00000000000000000, #15 ) ;
#158 = PERSON ( 'UNSPECIFIED', 'UNSPECIFIED', 'UNSPECIFIED', ('UNSPECIFIED'), ('UNSPECIFIED'), ('UNSPECIFIED') ) ;
#159 = PERSON_AND_ORGANIZATION ( #158, #73 ) ;
#160 = CC_DESIGN_APPROVAL ( #114, ( #104 ) ) ;
#161 = CARTESIAN_POINT ( 'NONE',  ( 0.0000000000000000000, 0.0000000000000000000, 0.0000000000000000000 ) ) ;
#162 = CALENDAR_DATE ( 2020, 27, 7 ) ;
#163 = CC_DESIGN_PERSON_AND_ORGANIZATION_ASSIGNMENT ( #156, #65, ( #118 ) ) ;
#164 = ORIENTED_EDGE ( 'NONE', *, *, #132, .F. ) ;
#165 = DIRECTION ( 'NONE',  ( 0.0000000000000000000, 0.0000000000000000000, 1.000000000000000000 ) ) ;
#166 =( NAMED_UNIT ( * ) SI_UNIT ( $, .STERADIAN. ) SOLID_ANGLE_UNIT ( ) );
#167 = DIRECTION ( 'NONE',  ( 1.000000000000000000, 0.0000000000000000000, 0.0000000000000000000 ) ) ;
#168 = VERTEX_POINT ( 'NONE', #59 ) ;
#169 = PERSON_AND_ORGANIZATION_ROLE ( 'classification_officer' ) ;
#170 = PERSON_AND_ORGANIZATION ( #158, #73 ) ;
#171 = DATE_AND_TIME ( #130, #175 ) ;
#172 = EDGE_CURVE ( 'NONE', #74, #168, #83, .T. ) ;
#173 = FACE_OUTER_BOUND ( 'NONE', #102, .T. ) ;
#174 = APPROVAL_PERSON_ORGANIZATION ( #61, #144, #7 ) ;
#175 = LOCAL_TIME ( 14, 46, 55.00000000000000000, #37 ) ;
ENDSEC;
END-ISO-10303-21;
