ISO-10303-21;
HEADER;
FILE_DESCRIPTION (( 'STEP AP203' ),
    '1' );
FILE_NAME ('Web Model 32269_46693.step',
    '2020-01-31T18:52:52',
    ( '' ),
    ( '' ),
    'SwSTEP 2.0',
    'SolidWorks 2018',
    '' );
FILE_SCHEMA (( 'CONFIG_CONTROL_DESIGN' ));
ENDSEC;

DATA;
#1 = DIRECTION ( 'NONE',  ( -1.000000000000000000, -0.0000000000000000000, -0.0000000000000000000 ) ) ;
#2 = CALENDAR_DATE ( 2020, 31, 1 ) ;
#3 = CARTESIAN_POINT ( 'NONE',  ( 9.999999999999998224, 13.49999999999999822, 0.5000000000000000000 ) ) ;
#4 = CARTESIAN_POINT ( 'NONE',  ( -10.00000000000000178, 13.49999999999999822, -0.5000000000000000000 ) ) ;
#5 = EDGE_CURVE ( 'NONE', #16, #157, #160, .T. ) ;
#6 = DIRECTION ( 'NONE',  ( 0.0000000000000000000, 0.0000000000000000000, 1.000000000000000000 ) ) ;
#7 = LINE ( 'NONE', #57, #75 ) ;
#8 = DIRECTION ( 'NONE',  ( 1.000000000000000000, 0.0000000000000000000, 0.0000000000000000000 ) ) ;
#9 = DIRECTION ( 'NONE',  ( -1.284980352575412946E-16, 1.000000000000000000, 0.0000000000000000000 ) ) ;
#10 = DATE_TIME_ROLE ( 'creation_date' ) ;
#11 = LOCAL_TIME ( 13, 52, 52.00000000000000000, #78 ) ;
#12 = DATE_TIME_ROLE ( 'classification_date' ) ;
#13 = AXIS2_PLACEMENT_3D ( 'NONE', #226, #86, #9 ) ;
#14 = LINE ( 'NONE', #149, #15 ) ;
#15 = VECTOR ( 'NONE', #166, 1000.000000000000000 ) ;
#16 = VERTEX_POINT ( 'NONE', #199 ) ;
#17 =( GEOMETRIC_REPRESENTATION_CONTEXT ( 3 ) GLOBAL_UNCERTAINTY_ASSIGNED_CONTEXT ( ( #152 ) ) GLOBAL_UNIT_ASSIGNED_CONTEXT ( ( #209, #90, #26 ) ) REPRESENTATION_CONTEXT ( 'NONE', 'WORKASPACE' ) );
#18 = VECTOR ( 'NONE', #145, 1000.000000000000000 ) ;
#19 = EDGE_CURVE ( 'NONE', #157, #120, #213, .T. ) ;
#20 = CALENDAR_DATE ( 2020, 31, 1 ) ;
#21 = FACE_OUTER_BOUND ( 'NONE', #112, .T. ) ;
#22 = PLANE ( 'NONE',  #173 ) ;
#23 = APPLICATION_PROTOCOL_DEFINITION ( 'international standard', 'config_control_design', 1994, #105 ) ;
#24 = VERTEX_POINT ( 'NONE', #83 ) ;
#25 = CARTESIAN_POINT ( 'NONE',  ( -10.00000000000000178, 13.49999999999999822, 0.5000000000000000000 ) ) ;
#26 =( NAMED_UNIT ( * ) SI_UNIT ( $, .STERADIAN. ) SOLID_ANGLE_UNIT ( ) );
#27 = ORIENTED_EDGE ( 'NONE', *, *, #208, .T. ) ;
#28 = APPROVAL_STATUS ( 'not_yet_approved' ) ;
#29 = CC_DESIGN_APPROVAL ( #54, ( #44 ) ) ;
#30 = ORIENTED_EDGE ( 'NONE', *, *, #148, .F. ) ;
#31 = CALENDAR_DATE ( 2020, 31, 1 ) ;
#32 = FACE_OUTER_BOUND ( 'NONE', #70, .T. ) ;
#33 = VERTEX_POINT ( 'NONE', #181 ) ;
#34 = APPROVAL_PERSON_ORGANIZATION ( #58, #212, #62 ) ;
#35 = DIRECTION ( 'NONE',  ( 1.284980352575412946E-16, -1.000000000000000000, 0.0000000000000000000 ) ) ;
#36 = EDGE_LOOP ( 'NONE', ( #225, #193, #163, #63 ) ) ;
#37 = CARTESIAN_POINT ( 'NONE',  ( 10.00000000000000178, -13.50000000000000178, 0.5000000000000000000 ) ) ;
#38 = EDGE_CURVE ( 'NONE', #24, #215, #107, .T. ) ;
#39 = PERSON_AND_ORGANIZATION ( #93, #99 ) ;
#40 = ORIENTED_EDGE ( 'NONE', *, *, #185, .T. ) ;
#41 = DIRECTION ( 'NONE',  ( -0.0000000000000000000, -0.0000000000000000000, -1.000000000000000000 ) ) ;
#42 = PLANE ( 'NONE',  #190 ) ;
#43 = CALENDAR_DATE ( 2020, 31, 1 ) ;
#44 = PRODUCT_DEFINITION ( 'UNKNOWN', '', #66, #216 ) ;
#45 = DATE_AND_TIME ( #31, #11 ) ;
#46 = EDGE_CURVE ( 'NONE', #120, #79, #222, .T. ) ;
#47 = EDGE_LOOP ( 'NONE', ( #76, #124, #147, #217 ) ) ;
#48 = VECTOR ( 'NONE', #53, 1000.000000000000000 ) ;
#49 = CC_DESIGN_DATE_AND_TIME_ASSIGNMENT ( #236, #12, ( #71 ) ) ;
#50 = APPROVAL_PERSON_ORGANIZATION ( #214, #54, #97 ) ;
#51 = CARTESIAN_POINT ( 'NONE',  ( 0.0000000000000000000, 0.0000000000000000000, 0.0000000000000000000 ) ) ;
#52 = ORIENTED_EDGE ( 'NONE', *, *, #161, .T. ) ;
#53 = DIRECTION ( 'NONE',  ( -0.0000000000000000000, -0.0000000000000000000, -1.000000000000000000 ) ) ;
#54 = APPROVAL ( #169, 'UNSPECIFIED' ) ;
#55 = CARTESIAN_POINT ( 'NONE',  ( 0.0000000000000000000, 0.0000000000000000000, -0.5000000000000000000 ) ) ;
#56 = VECTOR ( 'NONE', #41, 1000.000000000000000 ) ;
#57 = CARTESIAN_POINT ( 'NONE',  ( -10.00000000000000178, 13.49999999999999822, 0.5000000000000000000 ) ) ;
#58 = PERSON_AND_ORGANIZATION ( #93, #99 ) ;
#59 = ORIENTED_EDGE ( 'NONE', *, *, #148, .T. ) ;
#60 = APPROVAL_STATUS ( 'not_yet_approved' ) ;
#61 = AXIS2_PLACEMENT_3D ( 'NONE', #150, #187, #182 ) ;
#62 = APPROVAL_ROLE ( '' ) ;
#63 = ORIENTED_EDGE ( 'NONE', *, *, #46, .F. ) ;
#64 = COORDINATED_UNIVERSAL_TIME_OFFSET ( 5, 0, .BEHIND. ) ;
#65 = ORIENTED_EDGE ( 'NONE', *, *, #5, .T. ) ;
#66 = PRODUCT_DEFINITION_FORMATION_WITH_SPECIFIED_SOURCE ( 'ANY', '', #233, .NOT_KNOWN. ) ;
#67 = ORIENTED_EDGE ( 'NONE', *, *, #224, .T. ) ;
#68 = DIRECTION ( 'NONE',  ( 1.000000000000000000, 0.0000000000000000000, 0.0000000000000000000 ) ) ;
#69 = ADVANCED_BREP_SHAPE_REPRESENTATION ( 'Web Model 32269_46693', ( #126, #82 ), #17 ) ;
#70 = EDGE_LOOP ( 'NONE', ( #65, #73, #30, #67 ) ) ;
#71 = SECURITY_CLASSIFICATION ( '', '', #134 ) ;
#72 = ADVANCED_FACE ( 'NONE', ( #207 ), #121, .F. ) ;
#73 = ORIENTED_EDGE ( 'NONE', *, *, #176, .F. ) ;
#74 = DIRECTION ( 'NONE',  ( 1.000000000000000000, 0.0000000000000000000, 0.0000000000000000000 ) ) ;
#75 = VECTOR ( 'NONE', #109, 1000.000000000000000 ) ;
#76 = ORIENTED_EDGE ( 'NONE', *, *, #46, .T. ) ;
#77 = CC_DESIGN_APPROVAL ( #198, ( #66 ) ) ;
#78 = COORDINATED_UNIVERSAL_TIME_OFFSET ( 5, 0, .BEHIND. ) ;
#79 = VERTEX_POINT ( 'NONE', #4 ) ;
#80 = LOCAL_TIME ( 13, 52, 52.00000000000000000, #139 ) ;
#81 = VECTOR ( 'NONE', #167, 1000.000000000000000 ) ;
#82 = AXIS2_PLACEMENT_3D ( 'NONE', #51, #6, #74 ) ;
#83 = CARTESIAN_POINT ( 'NONE',  ( 9.999999999999998224, 13.49999999999999822, 0.5000000000000000000 ) ) ;
#84 = DATE_AND_TIME ( #43, #80 ) ;
#85 = VECTOR ( 'NONE', #178, 1000.000000000000000 ) ;
#86 = DIRECTION ( 'NONE',  ( 1.000000000000000000, 1.284980352575412946E-16, -0.0000000000000000000 ) ) ;
#87 = CARTESIAN_POINT ( 'NONE',  ( -9.999999999999998224, -13.50000000000000178, 0.5000000000000000000 ) ) ;
#88 = DIRECTION ( 'NONE',  ( -0.0000000000000000000, 0.0000000000000000000, 1.000000000000000000 ) ) ;
#89 = ADVANCED_FACE ( 'NONE', ( #231 ), #22, .F. ) ;
#90 =( NAMED_UNIT ( * ) PLANE_ANGLE_UNIT ( ) SI_UNIT ( $, .RADIAN. ) );
#91 = COORDINATED_UNIVERSAL_TIME_OFFSET ( 5, 0, .BEHIND. ) ;
#92 = PRODUCT_DEFINITION_SHAPE ( 'NONE', 'NONE',  #44 ) ;
#93 = PERSON ( 'UNSPECIFIED', 'UNSPECIFIED', 'UNSPECIFIED', ('UNSPECIFIED'), ('UNSPECIFIED'), ('UNSPECIFIED') ) ;
#94 = MECHANICAL_CONTEXT ( 'NONE', #105, 'mechanical' ) ;
#95 = APPROVAL_DATE_TIME ( #174, #212 ) ;
#96 = ORIENTED_EDGE ( 'NONE', *, *, #19, .T. ) ;
#97 = APPROVAL_ROLE ( '' ) ;
#98 = APPROVAL_DATE_TIME ( #45, #54 ) ;
#99 = ORGANIZATION ( 'UNSPECIFIED', 'UNSPECIFIED', '' ) ;
#100 = CARTESIAN_POINT ( 'NONE',  ( -10.00000000000000178, 13.49999999999999822, -0.5000000000000000000 ) ) ;
#101 = DIRECTION ( 'NONE',  ( 0.0000000000000000000, -1.000000000000000000, 0.0000000000000000000 ) ) ;
#102 = CARTESIAN_POINT ( 'NONE',  ( -10.00000000000000178, 13.49999999999999822, 0.5000000000000000000 ) ) ;
#103 = PERSON_AND_ORGANIZATION ( #93, #99 ) ;
#104 = ORIENTED_EDGE ( 'NONE', *, *, #192, .T. ) ;
#105 = APPLICATION_CONTEXT ( 'configuration controlled 3d designs of mechanical parts and assemblies' ) ;
#106 = PLANE ( 'NONE',  #155 ) ;
#107 = LINE ( 'NONE', #200, #18 ) ;
#108 = CARTESIAN_POINT ( 'NONE',  ( -10.00000000000000178, 13.49999999999999822, 0.5000000000000000000 ) ) ;
#109 = DIRECTION ( 'NONE',  ( 1.284980352575412699E-16, -1.000000000000000000, 0.0000000000000000000 ) ) ;
#110 = PERSON_AND_ORGANIZATION_ROLE ( 'design_owner' ) ;
#111 = LOCAL_TIME ( 13, 52, 52.00000000000000000, #132 ) ;
#112 = EDGE_LOOP ( 'NONE', ( #27, #177, #140, #104 ) ) ;
#113 = PERSON_AND_ORGANIZATION_ROLE ( 'design_supplier' ) ;
#114 = PRODUCT_RELATED_PRODUCT_CATEGORY ( 'detail', '', ( #233 ) ) ;
#115 = ORIENTED_EDGE ( 'NONE', *, *, #176, .T. ) ;
#116 = CC_DESIGN_PERSON_AND_ORGANIZATION_ASSIGNMENT ( #188, #110, ( #233 ) ) ;
#117 = APPROVAL_DATE_TIME ( #142, #198 ) ;
#118 = VECTOR ( 'NONE', #228, 1000.000000000000000 ) ;
#119 = CC_DESIGN_DATE_AND_TIME_ASSIGNMENT ( #84, #10, ( #44 ) ) ;
#120 = VERTEX_POINT ( 'NONE', #221 ) ;
#121 = PLANE ( 'NONE',  #138 ) ;
#122 = EDGE_CURVE ( 'NONE', #24, #120, #154, .T. ) ;
#123 = SHAPE_DEFINITION_REPRESENTATION ( #92, #69 ) ;
#124 = ORIENTED_EDGE ( 'NONE', *, *, #192, .F. ) ;
#125 = CARTESIAN_POINT ( 'NONE',  ( 9.999999999999998224, 13.49999999999999822, 0.5000000000000000000 ) ) ;
#126 = MANIFOLD_SOLID_BREP ( 'Boss-Extrude1', #127 ) ;
#127 = CLOSED_SHELL ( 'NONE', ( #89, #72, #165, #128, #227, #205 ) ) ;
#128 = ADVANCED_FACE ( 'NONE', ( #32 ), #42, .F. ) ;
#129 = CC_DESIGN_APPROVAL ( #212, ( #71 ) ) ;
#130 = DIRECTION ( 'NONE',  ( -1.284980352575412699E-16, 1.000000000000000000, -0.0000000000000000000 ) ) ;
#131 = CARTESIAN_POINT ( 'NONE',  ( -9.999999999999998224, -13.50000000000000178, 0.5000000000000000000 ) ) ;
#132 = COORDINATED_UNIVERSAL_TIME_OFFSET ( 5, 0, .BEHIND. ) ;
#133 = EDGE_LOOP ( 'NONE', ( #40, #197, #52, #59 ) ) ;
#134 = SECURITY_CLASSIFICATION_LEVEL ( 'unclassified' ) ;
#135 = FACE_OUTER_BOUND ( 'NONE', #36, .T. ) ;
#136 = LINE ( 'NONE', #144, #81 ) ;
#137 = CALENDAR_DATE ( 2020, 31, 1 ) ;
#138 = AXIS2_PLACEMENT_3D ( 'NONE', #102, #101, #159 ) ;
#139 = COORDINATED_UNIVERSAL_TIME_OFFSET ( 5, 0, .BEHIND. ) ;
#140 = ORIENTED_EDGE ( 'NONE', *, *, #161, .F. ) ;
#141 = CC_DESIGN_PERSON_AND_ORGANIZATION_ASSIGNMENT ( #103, #113, ( #66 ) ) ;
#142 = DATE_AND_TIME ( #2, #111 ) ;
#143 = DIRECTION ( 'NONE',  ( -1.000000000000000000, -1.284980352575412946E-16, 0.0000000000000000000 ) ) ;
#144 = CARTESIAN_POINT ( 'NONE',  ( 10.00000000000000178, -13.50000000000000178, 0.5000000000000000000 ) ) ;
#145 = DIRECTION ( 'NONE',  ( -1.000000000000000000, -0.0000000000000000000, -0.0000000000000000000 ) ) ;
#146 = LOCAL_TIME ( 13, 52, 52.00000000000000000, #91 ) ;
#147 = ORIENTED_EDGE ( 'NONE', *, *, #38, .F. ) ;
#148 = EDGE_CURVE ( 'NONE', #33, #172, #168, .T. ) ;
#149 = CARTESIAN_POINT ( 'NONE',  ( -10.00000000000000178, 13.49999999999999822, -0.5000000000000000000 ) ) ;
#150 = CARTESIAN_POINT ( 'NONE',  ( 0.0000000000000000000, 0.0000000000000000000, 0.5000000000000000000 ) ) ;
#151 = PLANE ( 'NONE',  #61 ) ;
#152 = UNCERTAINTY_MEASURE_WITH_UNIT (LENGTH_MEASURE( 1.000000000000000082E-05 ), #209, 'distance_accuracy_value', 'NONE');
#153 = PERSON_AND_ORGANIZATION_ROLE ( 'creator' ) ;
#154 = LINE ( 'NONE', #125, #175 ) ;
#155 = AXIS2_PLACEMENT_3D ( 'NONE', #55, #88, #8 ) ;
#156 = PERSON_AND_ORGANIZATION ( #93, #99 ) ;
#157 = VERTEX_POINT ( 'NONE', #186 ) ;
#158 = CC_DESIGN_PERSON_AND_ORGANIZATION_ASSIGNMENT ( #39, #189, ( #66 ) ) ;
#159 = DIRECTION ( 'NONE',  ( 0.0000000000000000000, -0.0000000000000000000, -1.000000000000000000 ) ) ;
#160 = LINE ( 'NONE', #220, #202 ) ;
#161 = EDGE_CURVE ( 'NONE', #215, #33, #7, .T. ) ;
#162 = LINE ( 'NONE', #108, #48 ) ;
#163 = ORIENTED_EDGE ( 'NONE', *, *, #208, .F. ) ;
#164 = ORIENTED_EDGE ( 'NONE', *, *, #185, .F. ) ;
#165 = ADVANCED_FACE ( 'NONE', ( #21 ), #203, .F. ) ;
#166 = DIRECTION ( 'NONE',  ( 1.284980352575412699E-16, -1.000000000000000000, 0.0000000000000000000 ) ) ;
#167 = DIRECTION ( 'NONE',  ( -0.0000000000000000000, -0.0000000000000000000, -1.000000000000000000 ) ) ;
#168 = LINE ( 'NONE', #87, #118 ) ;
#169 = APPROVAL_STATUS ( 'not_yet_approved' ) ;
#170 = PERSON_AND_ORGANIZATION_ROLE ( 'classification_officer' ) ;
#171 = CC_DESIGN_PERSON_AND_ORGANIZATION_ASSIGNMENT ( #156, #170, ( #71 ) ) ;
#172 = VERTEX_POINT ( 'NONE', #37 ) ;
#173 = AXIS2_PLACEMENT_3D ( 'NONE', #3, #143, #35 ) ;
#174 = DATE_AND_TIME ( #20, #230 ) ;
#175 = VECTOR ( 'NONE', #223, 1000.000000000000000 ) ;
#176 = EDGE_CURVE ( 'NONE', #172, #157, #136, .T. ) ;
#177 = ORIENTED_EDGE ( 'NONE', *, *, #224, .F. ) ;
#178 = DIRECTION ( 'NONE',  ( -1.284980352575412699E-16, 1.000000000000000000, -0.0000000000000000000 ) ) ;
#179 = FACE_OUTER_BOUND ( 'NONE', #133, .T. ) ;
#180 = VECTOR ( 'NONE', #1, 1000.000000000000000 ) ;
#181 = CARTESIAN_POINT ( 'NONE',  ( -9.999999999999998224, -13.50000000000000178, 0.5000000000000000000 ) ) ;
#182 = DIRECTION ( 'NONE',  ( 1.000000000000000000, 0.0000000000000000000, 0.0000000000000000000 ) ) ;
#183 = LINE ( 'NONE', #131, #56 ) ;
#184 = CARTESIAN_POINT ( 'NONE',  ( 9.999999999999998224, 13.49999999999999822, 0.5000000000000000000 ) ) ;
#185 = EDGE_CURVE ( 'NONE', #172, #24, #234, .T. ) ;
#186 = CARTESIAN_POINT ( 'NONE',  ( 10.00000000000000178, -13.50000000000000178, -0.5000000000000000000 ) ) ;
#187 = DIRECTION ( 'NONE',  ( -0.0000000000000000000, 0.0000000000000000000, 1.000000000000000000 ) ) ;
#188 = PERSON_AND_ORGANIZATION ( #93, #99 ) ;
#189 = PERSON_AND_ORGANIZATION_ROLE ( 'creator' ) ;
#190 = AXIS2_PLACEMENT_3D ( 'NONE', #204, #229, #206 ) ;
#191 = APPLICATION_PROTOCOL_DEFINITION ( 'international standard', 'config_control_design', 1994, #211 ) ;
#192 = EDGE_CURVE ( 'NONE', #215, #79, #162, .T. ) ;
#193 = ORIENTED_EDGE ( 'NONE', *, *, #5, .F. ) ;
#194 = CC_DESIGN_SECURITY_CLASSIFICATION ( #71, ( #66 ) ) ;
#195 = APPROVAL_PERSON_ORGANIZATION ( #237, #198, #232 ) ;
#196 = PERSON_AND_ORGANIZATION ( #93, #99 ) ;
#197 = ORIENTED_EDGE ( 'NONE', *, *, #38, .T. ) ;
#198 = APPROVAL ( #60, 'UNSPECIFIED' ) ;
#199 = CARTESIAN_POINT ( 'NONE',  ( -9.999999999999998224, -13.50000000000000178, -0.5000000000000000000 ) ) ;
#200 = CARTESIAN_POINT ( 'NONE',  ( -10.00000000000000178, 13.49999999999999822, 0.5000000000000000000 ) ) ;
#201 = VECTOR ( 'NONE', #130, 1000.000000000000000 ) ;
#202 = VECTOR ( 'NONE', #68, 1000.000000000000000 ) ;
#203 = PLANE ( 'NONE',  #13 ) ;
#204 = CARTESIAN_POINT ( 'NONE',  ( -9.999999999999998224, -13.50000000000000178, 0.5000000000000000000 ) ) ;
#205 = ADVANCED_FACE ( 'NONE', ( #135 ), #106, .F. ) ;
#206 = DIRECTION ( 'NONE',  ( 0.0000000000000000000, -0.0000000000000000000, 1.000000000000000000 ) ) ;
#207 = FACE_OUTER_BOUND ( 'NONE', #47, .T. ) ;
#208 = EDGE_CURVE ( 'NONE', #79, #16, #14, .T. ) ;
#209 =( LENGTH_UNIT ( ) NAMED_UNIT ( * ) SI_UNIT ( .MILLI., .METRE. ) );
#210 = EDGE_LOOP ( 'NONE', ( #96, #235, #164, #115 ) ) ;
#211 = APPLICATION_CONTEXT ( 'configuration controlled 3d designs of mechanical parts and assemblies' ) ;
#212 = APPROVAL ( #28, 'UNSPECIFIED' ) ;
#213 = LINE ( 'NONE', #218, #85 ) ;
#214 = PERSON_AND_ORGANIZATION ( #93, #99 ) ;
#215 = VERTEX_POINT ( 'NONE', #25 ) ;
#216 = DESIGN_CONTEXT ( 'detailed design', #211, 'design' ) ;
#217 = ORIENTED_EDGE ( 'NONE', *, *, #122, .T. ) ;
#218 = CARTESIAN_POINT ( 'NONE',  ( 9.999999999999998224, 13.49999999999999822, -0.5000000000000000000 ) ) ;
#219 = CC_DESIGN_PERSON_AND_ORGANIZATION_ASSIGNMENT ( #196, #153, ( #44 ) ) ;
#220 = CARTESIAN_POINT ( 'NONE',  ( -9.999999999999998224, -13.50000000000000178, -0.5000000000000000000 ) ) ;
#221 = CARTESIAN_POINT ( 'NONE',  ( 9.999999999999998224, 13.49999999999999822, -0.5000000000000000000 ) ) ;
#222 = LINE ( 'NONE', #100, #180 ) ;
#223 = DIRECTION ( 'NONE',  ( -0.0000000000000000000, -0.0000000000000000000, -1.000000000000000000 ) ) ;
#224 = EDGE_CURVE ( 'NONE', #33, #16, #183, .T. ) ;
#225 = ORIENTED_EDGE ( 'NONE', *, *, #19, .F. ) ;
#226 = CARTESIAN_POINT ( 'NONE',  ( -10.00000000000000178, 13.49999999999999822, 0.5000000000000000000 ) ) ;
#227 = ADVANCED_FACE ( 'NONE', ( #179 ), #151, .T. ) ;
#228 = DIRECTION ( 'NONE',  ( 1.000000000000000000, 0.0000000000000000000, 0.0000000000000000000 ) ) ;
#229 = DIRECTION ( 'NONE',  ( 0.0000000000000000000, 1.000000000000000000, 0.0000000000000000000 ) ) ;
#230 = LOCAL_TIME ( 13, 52, 52.00000000000000000, #64 ) ;
#231 = FACE_OUTER_BOUND ( 'NONE', #210, .T. ) ;
#232 = APPROVAL_ROLE ( '' ) ;
#233 = PRODUCT ( 'Web Model 32269_46693', 'Web Model 32269_46693', '', ( #94 ) ) ;
#234 = LINE ( 'NONE', #184, #201 ) ;
#235 = ORIENTED_EDGE ( 'NONE', *, *, #122, .F. ) ;
#236 = DATE_AND_TIME ( #137, #146 ) ;
#237 = PERSON_AND_ORGANIZATION ( #93, #99 ) ;
ENDSEC;
END-ISO-10303-21;
