ISO-10303-21;
HEADER;
FILE_DESCRIPTION (( 'STEP AP203' ),
    '1' );
FILE_NAME ('ISP Flat Parts_16820.step',
    '2021-01-07T14:53:12',
    ( '' ),
    ( '' ),
    'SwSTEP 2.0',
    'SolidWorks 2018',
    '' );
FILE_SCHEMA (( 'CONFIG_CONTROL_DESIGN' ));
ENDSEC;

DATA;
#1 = SECURITY_CLASSIFICATION ( '', '', #161 ) ;
#2 = DATE_AND_TIME ( #125, #92 ) ;
#3 = CARTESIAN_POINT ( 'NONE',  ( 0.0000000000000000000, 0.0000000000000000000, 3.000000000000000000 ) ) ;
#4 = VERTEX_POINT ( 'NONE', #84 ) ;
#5 = VERTEX_POINT ( 'NONE', #100 ) ;
#6 = PRODUCT ( 'ISP Flat Parts_16820', 'ISP Flat Parts_16820', '', ( #172 ) ) ;
#7 = APPROVAL_DATE_TIME ( #144, #22 ) ;
#8 = APPROVAL_PERSON_ORGANIZATION ( #82, #160, #13 ) ;
#9 = AXIS2_PLACEMENT_3D ( 'NONE', #58, #111, #69 ) ;
#10 = PERSON_AND_ORGANIZATION_ROLE ( 'design_supplier' ) ;
#11 = DIRECTION ( 'NONE',  ( 1.000000000000000000, 0.0000000000000000000, 0.0000000000000000000 ) ) ;
#12 = CC_DESIGN_DATE_AND_TIME_ASSIGNMENT ( #2, #108, ( #1 ) ) ;
#13 = APPROVAL_ROLE ( '' ) ;
#14 = ORIENTED_EDGE ( 'NONE', *, *, #55, .T. ) ;
#15 = APPROVAL_STATUS ( 'not_yet_approved' ) ;
#16 = DIRECTION ( 'NONE',  ( 1.000000000000000000, 0.0000000000000000000, -0.0000000000000000000 ) ) ;
#17 = AXIS2_PLACEMENT_3D ( 'NONE', #3, #102, #52 ) ;
#18 = CALENDAR_DATE ( 2021, 7, 1 ) ;
#19 = CALENDAR_DATE ( 2021, 7, 1 ) ;
#20 = CYLINDRICAL_SURFACE ( 'NONE', #166, 12.69999999999999929 ) ;
#21 =( GEOMETRIC_REPRESENTATION_CONTEXT ( 3 ) GLOBAL_UNCERTAINTY_ASSIGNED_CONTEXT ( ( #169 ) ) GLOBAL_UNIT_ASSIGNED_CONTEXT ( ( #67, #81, #149 ) ) REPRESENTATION_CONTEXT ( 'NONE', 'WORKASPACE' ) );
#22 = APPROVAL ( #135, 'UNSPECIFIED' ) ;
#23 = VECTOR ( 'NONE', #30, 1000.000000000000000 ) ;
#24 = DATE_AND_TIME ( #54, #27 ) ;
#25 = MANIFOLD_SOLID_BREP ( 'Boss-Extrude1', #103 ) ;
#26 = PERSON_AND_ORGANIZATION_ROLE ( 'design_owner' ) ;
#27 = LOCAL_TIME ( 9, 53, 12.00000000000000000, #65 ) ;
#28 = DIRECTION ( 'NONE',  ( 0.0000000000000000000, 0.0000000000000000000, 1.000000000000000000 ) ) ;
#29 = CARTESIAN_POINT ( 'NONE',  ( 0.0000000000000000000, 0.0000000000000000000, 3.000000000000000000 ) ) ;
#30 = DIRECTION ( 'NONE',  ( -0.0000000000000000000, -0.0000000000000000000, -1.000000000000000000 ) ) ;
#31 = CIRCLE ( 'NONE', #68, 12.69999999999999929 ) ;
#32 = DIRECTION ( 'NONE',  ( -0.0000000000000000000, -0.0000000000000000000, -1.000000000000000000 ) ) ;
#33 = CC_DESIGN_PERSON_AND_ORGANIZATION_ASSIGNMENT ( #62, #26, ( #6 ) ) ;
#34 = CC_DESIGN_APPROVAL ( #22, ( #1 ) ) ;
#35 = CARTESIAN_POINT ( 'NONE',  ( 12.69999999999999929, 1.555301434917138433E-15, 0.0000000000000000000 ) ) ;
#36 = CARTESIAN_POINT ( 'NONE',  ( 0.0000000000000000000, 0.0000000000000000000, 0.0000000000000000000 ) ) ;
#37 = VECTOR ( 'NONE', #46, 1000.000000000000000 ) ;
#38 = PRODUCT_DEFINITION ( 'UNKNOWN', '', #56, #79 ) ;
#39 = PERSON_AND_ORGANIZATION ( #90, #129 ) ;
#40 = FACE_OUTER_BOUND ( 'NONE', #157, .T. ) ;
#41 = PERSON_AND_ORGANIZATION ( #90, #129 ) ;
#42 = PERSON_AND_ORGANIZATION_ROLE ( 'classification_officer' ) ;
#43 = APPLICATION_PROTOCOL_DEFINITION ( 'international standard', 'config_control_design', 1994, #164 ) ;
#44 = APPROVAL_ROLE ( '' ) ;
#45 = LOCAL_TIME ( 9, 53, 12.00000000000000000, #116 ) ;
#46 = DIRECTION ( 'NONE',  ( -0.0000000000000000000, -0.0000000000000000000, -1.000000000000000000 ) ) ;
#47 = CIRCLE ( 'NONE', #71, 12.69999999999999929 ) ;
#48 = DATE_TIME_ROLE ( 'creation_date' ) ;
#49 = CC_DESIGN_DATE_AND_TIME_ASSIGNMENT ( #24, #48, ( #38 ) ) ;
#50 = COORDINATED_UNIVERSAL_TIME_OFFSET ( 5, 0, .BEHIND. ) ;
#51 = FACE_OUTER_BOUND ( 'NONE', #53, .T. ) ;
#52 = DIRECTION ( 'NONE',  ( 1.000000000000000000, 0.0000000000000000000, -0.0000000000000000000 ) ) ;
#53 = EDGE_LOOP ( 'NONE', ( #134, #142, #97, #133 ) ) ;
#54 = CALENDAR_DATE ( 2021, 7, 1 ) ;
#55 = EDGE_CURVE ( 'NONE', #5, #162, #148, .T. ) ;
#56 = PRODUCT_DEFINITION_FORMATION_WITH_SPECIFIED_SOURCE ( 'ANY', '', #6, .NOT_KNOWN. ) ;
#57 = CARTESIAN_POINT ( 'NONE',  ( 12.69999999999999929, 1.555301434917138433E-15, 3.000000000000000000 ) ) ;
#58 = CARTESIAN_POINT ( 'NONE',  ( 0.0000000000000000000, 0.0000000000000000000, 3.000000000000000000 ) ) ;
#59 = ORIENTED_EDGE ( 'NONE', *, *, #158, .F. ) ;
#60 = ADVANCED_FACE ( 'NONE', ( #51 ), #20, .T. ) ;
#61 = APPROVAL_DATE_TIME ( #119, #160 ) ;
#62 = PERSON_AND_ORGANIZATION ( #90, #129 ) ;
#63 = APPROVAL ( #15, 'UNSPECIFIED' ) ;
#64 = LOCAL_TIME ( 9, 53, 12.00000000000000000, #106 ) ;
#65 = COORDINATED_UNIVERSAL_TIME_OFFSET ( 5, 0, .BEHIND. ) ;
#66 = AXIS2_PLACEMENT_3D ( 'NONE', #140, #83, #168 ) ;
#67 =( LENGTH_UNIT ( ) NAMED_UNIT ( * ) SI_UNIT ( .MILLI., .METRE. ) );
#68 = AXIS2_PLACEMENT_3D ( 'NONE', #94, #136, #163 ) ;
#69 = DIRECTION ( 'NONE',  ( -1.000000000000000000, 0.0000000000000000000, 0.0000000000000000000 ) ) ;
#70 = CC_DESIGN_APPROVAL ( #63, ( #56 ) ) ;
#71 = AXIS2_PLACEMENT_3D ( 'NONE', #29, #137, #11 ) ;
#72 = PERSON_AND_ORGANIZATION ( #90, #129 ) ;
#73 = ORIENTED_EDGE ( 'NONE', *, *, #150, .T. ) ;
#74 = CC_DESIGN_PERSON_AND_ORGANIZATION_ASSIGNMENT ( #72, #110, ( #56 ) ) ;
#75 = PERSON_AND_ORGANIZATION ( #90, #129 ) ;
#76 = FACE_OUTER_BOUND ( 'NONE', #147, .T. ) ;
#77 = CARTESIAN_POINT ( 'NONE',  ( -12.69999999999999929, 0.0000000000000000000, 3.000000000000000000 ) ) ;
#78 = ORIENTED_EDGE ( 'NONE', *, *, #170, .T. ) ;
#79 = DESIGN_CONTEXT ( 'detailed design', #124, 'design' ) ;
#80 = DIRECTION ( 'NONE',  ( 1.000000000000000000, 0.0000000000000000000, 0.0000000000000000000 ) ) ;
#81 =( NAMED_UNIT ( * ) PLANE_ANGLE_UNIT ( ) SI_UNIT ( $, .RADIAN. ) );
#82 = PERSON_AND_ORGANIZATION ( #90, #129 ) ;
#83 = DIRECTION ( 'NONE',  ( 0.0000000000000000000, 0.0000000000000000000, 1.000000000000000000 ) ) ;
#84 = CARTESIAN_POINT ( 'NONE',  ( -12.69999999999999929, 0.0000000000000000000, 0.0000000000000000000 ) ) ;
#85 = PLANE ( 'NONE',  #17 ) ;
#86 = LINE ( 'NONE', #57, #37 ) ;
#87 = CC_DESIGN_PERSON_AND_ORGANIZATION_ASSIGNMENT ( #75, #10, ( #56 ) ) ;
#88 = AXIS2_PLACEMENT_3D ( 'NONE', #36, #28, #95 ) ;
#89 = ORIENTED_EDGE ( 'NONE', *, *, #115, .F. ) ;
#90 = PERSON ( 'UNSPECIFIED', 'UNSPECIFIED', 'UNSPECIFIED', ('UNSPECIFIED'), ('UNSPECIFIED'), ('UNSPECIFIED') ) ;
#91 = DIRECTION ( 'NONE',  ( 0.0000000000000000000, 0.0000000000000000000, 1.000000000000000000 ) ) ;
#92 = LOCAL_TIME ( 9, 53, 12.00000000000000000, #50 ) ;
#93 = COORDINATED_UNIVERSAL_TIME_OFFSET ( 5, 0, .BEHIND. ) ;
#94 = CARTESIAN_POINT ( 'NONE',  ( 0.0000000000000000000, 0.0000000000000000000, 0.0000000000000000000 ) ) ;
#95 = DIRECTION ( 'NONE',  ( 1.000000000000000000, 0.0000000000000000000, 0.0000000000000000000 ) ) ;
#96 = PRODUCT_DEFINITION_SHAPE ( 'NONE', 'NONE',  #38 ) ;
#97 = ORIENTED_EDGE ( 'NONE', *, *, #158, .T. ) ;
#98 = CC_DESIGN_PERSON_AND_ORGANIZATION_ASSIGNMENT ( #41, #42, ( #1 ) ) ;
#99 = PERSON_AND_ORGANIZATION ( #90, #129 ) ;
#100 = CARTESIAN_POINT ( 'NONE',  ( -12.69999999999999929, 0.0000000000000000000, 3.000000000000000000 ) ) ;
#101 = AXIS2_PLACEMENT_3D ( 'NONE', #107, #126, #16 ) ;
#102 = DIRECTION ( 'NONE',  ( 0.0000000000000000000, 0.0000000000000000000, 1.000000000000000000 ) ) ;
#103 = CLOSED_SHELL ( 'NONE', ( #167, #60, #112, #130 ) ) ;
#104 = CC_DESIGN_SECURITY_CLASSIFICATION ( #1, ( #56 ) ) ;
#105 = ORIENTED_EDGE ( 'NONE', *, *, #139, .T. ) ;
#106 = COORDINATED_UNIVERSAL_TIME_OFFSET ( 5, 0, .BEHIND. ) ;
#107 = CARTESIAN_POINT ( 'NONE',  ( 0.0000000000000000000, 0.0000000000000000000, 0.0000000000000000000 ) ) ;
#108 = DATE_TIME_ROLE ( 'classification_date' ) ;
#109 = APPROVAL_STATUS ( 'not_yet_approved' ) ;
#110 = PERSON_AND_ORGANIZATION_ROLE ( 'creator' ) ;
#111 = DIRECTION ( 'NONE',  ( -0.0000000000000000000, -0.0000000000000000000, -1.000000000000000000 ) ) ;
#112 = ADVANCED_FACE ( 'NONE', ( #114 ), #85, .T. ) ;
#113 = APPROVAL_PERSON_ORGANIZATION ( #156, #63, #138 ) ;
#114 = FACE_OUTER_BOUND ( 'NONE', #121, .T. ) ;
#115 = EDGE_CURVE ( 'NONE', #4, #127, #117, .T. ) ;
#116 = COORDINATED_UNIVERSAL_TIME_OFFSET ( 5, 0, .BEHIND. ) ;
#117 = CIRCLE ( 'NONE', #88, 12.69999999999999929 ) ;
#118 = DATE_AND_TIME ( #131, #45 ) ;
#119 = DATE_AND_TIME ( #19, #155 ) ;
#120 = ADVANCED_BREP_SHAPE_REPRESENTATION ( 'ISP Flat Parts_16820', ( #25, #146 ), #21 ) ;
#121 = EDGE_LOOP ( 'NONE', ( #14, #105 ) ) ;
#122 = SHAPE_DEFINITION_REPRESENTATION ( #96, #120 ) ;
#123 = ORIENTED_EDGE ( 'NONE', *, *, #150, .F. ) ;
#124 = APPLICATION_CONTEXT ( 'configuration controlled 3d designs of mechanical parts and assemblies' ) ;
#125 = CALENDAR_DATE ( 2021, 7, 1 ) ;
#126 = DIRECTION ( 'NONE',  ( 0.0000000000000000000, 0.0000000000000000000, 1.000000000000000000 ) ) ;
#127 = VERTEX_POINT ( 'NONE', #35 ) ;
#128 = APPLICATION_PROTOCOL_DEFINITION ( 'international standard', 'config_control_design', 1994, #124 ) ;
#129 = ORGANIZATION ( 'UNSPECIFIED', 'UNSPECIFIED', '' ) ;
#130 = ADVANCED_FACE ( 'NONE', ( #40 ), #152, .F. ) ;
#131 = CALENDAR_DATE ( 2021, 7, 1 ) ;
#132 = CYLINDRICAL_SURFACE ( 'NONE', #9, 12.69999999999999929 ) ;
#133 = ORIENTED_EDGE ( 'NONE', *, *, #115, .T. ) ;
#134 = ORIENTED_EDGE ( 'NONE', *, *, #170, .F. ) ;
#135 = APPROVAL_STATUS ( 'not_yet_approved' ) ;
#136 = DIRECTION ( 'NONE',  ( 0.0000000000000000000, 0.0000000000000000000, 1.000000000000000000 ) ) ;
#137 = DIRECTION ( 'NONE',  ( 0.0000000000000000000, 0.0000000000000000000, 1.000000000000000000 ) ) ;
#138 = APPROVAL_ROLE ( '' ) ;
#139 = EDGE_CURVE ( 'NONE', #162, #5, #47, .T. ) ;
#140 = CARTESIAN_POINT ( 'NONE',  ( 0.0000000000000000000, 0.0000000000000000000, 3.000000000000000000 ) ) ;
#141 = CC_DESIGN_APPROVAL ( #160, ( #38 ) ) ;
#142 = ORIENTED_EDGE ( 'NONE', *, *, #55, .F. ) ;
#143 = APPROVAL_DATE_TIME ( #118, #63 ) ;
#144 = DATE_AND_TIME ( #18, #64 ) ;
#145 = LINE ( 'NONE', #77, #23 ) ;
#146 = AXIS2_PLACEMENT_3D ( 'NONE', #159, #91, #80 ) ;
#147 = EDGE_LOOP ( 'NONE', ( #151, #78, #73, #59 ) ) ;
#148 = CIRCLE ( 'NONE', #66, 12.69999999999999929 ) ;
#149 =( NAMED_UNIT ( * ) SI_UNIT ( $, .STERADIAN. ) SOLID_ANGLE_UNIT ( ) );
#150 = EDGE_CURVE ( 'NONE', #127, #4, #31, .T. ) ;
#151 = ORIENTED_EDGE ( 'NONE', *, *, #139, .F. ) ;
#152 = PLANE ( 'NONE',  #101 ) ;
#153 = CC_DESIGN_PERSON_AND_ORGANIZATION_ASSIGNMENT ( #39, #173, ( #38 ) ) ;
#154 = APPROVAL_PERSON_ORGANIZATION ( #99, #22, #44 ) ;
#155 = LOCAL_TIME ( 9, 53, 12.00000000000000000, #93 ) ;
#156 = PERSON_AND_ORGANIZATION ( #90, #129 ) ;
#157 = EDGE_LOOP ( 'NONE', ( #89, #123 ) ) ;
#158 = EDGE_CURVE ( 'NONE', #5, #4, #145, .T. ) ;
#159 = CARTESIAN_POINT ( 'NONE',  ( 0.0000000000000000000, 0.0000000000000000000, 0.0000000000000000000 ) ) ;
#160 = APPROVAL ( #109, 'UNSPECIFIED' ) ;
#161 = SECURITY_CLASSIFICATION_LEVEL ( 'unclassified' ) ;
#162 = VERTEX_POINT ( 'NONE', #165 ) ;
#163 = DIRECTION ( 'NONE',  ( 1.000000000000000000, 0.0000000000000000000, 0.0000000000000000000 ) ) ;
#164 = APPLICATION_CONTEXT ( 'configuration controlled 3d designs of mechanical parts and assemblies' ) ;
#165 = CARTESIAN_POINT ( 'NONE',  ( 12.69999999999999929, 1.555301434917138433E-15, 3.000000000000000000 ) ) ;
#166 = AXIS2_PLACEMENT_3D ( 'NONE', #174, #32, #175 ) ;
#167 = ADVANCED_FACE ( 'NONE', ( #76 ), #132, .T. ) ;
#168 = DIRECTION ( 'NONE',  ( 1.000000000000000000, 0.0000000000000000000, 0.0000000000000000000 ) ) ;
#169 = UNCERTAINTY_MEASURE_WITH_UNIT (LENGTH_MEASURE( 1.000000000000000082E-05 ), #67, 'distance_accuracy_value', 'NONE');
#170 = EDGE_CURVE ( 'NONE', #162, #127, #86, .T. ) ;
#171 = PRODUCT_RELATED_PRODUCT_CATEGORY ( 'detail', '', ( #6 ) ) ;
#172 = MECHANICAL_CONTEXT ( 'NONE', #164, 'mechanical' ) ;
#173 = PERSON_AND_ORGANIZATION_ROLE ( 'creator' ) ;
#174 = CARTESIAN_POINT ( 'NONE',  ( 0.0000000000000000000, 0.0000000000000000000, 3.000000000000000000 ) ) ;
#175 = DIRECTION ( 'NONE',  ( -1.000000000000000000, 0.0000000000000000000, 0.0000000000000000000 ) ) ;
ENDSEC;
END-ISO-10303-21;
