ISO-10303-21;
HEADER;
FILE_DESCRIPTION (( 'STEP AP203' ),
    '1' );
FILE_NAME ('4939-E0W.STEP',
    '2015-11-16T21:55:19',
    ( 'admin' ),
    ( '' ),
    'SwSTEP 2.0',
    'SolidWorks 2014',
    '' );
FILE_SCHEMA (( 'CONFIG_CONTROL_DESIGN' ));
ENDSEC;

DATA;
#1 = DIRECTION ( 'NONE',  ( -1.000000000000000000, -0.0000000000000000000, -0.0000000000000000000 ) ) ;
#2 = DATE_AND_TIME ( #110, #254 ) ;
#3 = APPLICATION_CONTEXT ( 'configuration controlled 3d designs of mechanical parts and assemblies' ) ;
#4 = ORIENTED_EDGE ( 'NONE', *, *, #82, .F. ) ;
#5 = CARTESIAN_POINT ( 'NONE',  ( 0.1171669885887391400, 1.265629073921969200E-017, 0.0000000000000000000 ) ) ;
#6 = CARTESIAN_POINT ( 'NONE',  ( 0.1241267010019927900, 1.265629073921969200E-017, 0.4930402875867466700 ) ) ;
#7 = SPHERICAL_SURFACE ( 'NONE', #245, 2.228346456692913400 ) ;
#8 = PERSON_AND_ORGANIZATION ( #172, #92 ) ;
#9 = APPROVAL_STATUS ( 'not_yet_approved' ) ;
#10 = AXIS2_PLACEMENT_3D ( 'NONE', #113, #185, #128 ) ;
#11 = CARTESIAN_POINT ( 'NONE',  ( 0.1241267010019927900, 1.265629073921969200E-017, 0.0000000000000000000 ) ) ;
#12 = ADVANCED_FACE ( 'NONE', ( #75 ), #109, .T. ) ;
#13 = DIRECTION ( 'NONE',  ( -1.000000000000000000, -0.0000000000000000000, -0.0000000000000000000 ) ) ;
#14 = CARTESIAN_POINT ( 'NONE',  ( 0.06889763779527564900, -1.364468677790161300E-016, 9.528033851880625700E-031 ) ) ;
#15 = EDGE_CURVE ( 'NONE', #244, #151, #293, .T. ) ;
#16 = LENGTH_MEASURE_WITH_UNIT ( LENGTH_MEASURE( 0.02539999999999999900 ), #210 );
#17 = CC_DESIGN_PERSON_AND_ORGANIZATION_ASSIGNMENT ( #312, #343, ( #309 ) ) ;
#18 = ORIENTED_EDGE ( 'NONE', *, *, #78, .T. ) ;
#19 = CONICAL_SURFACE ( 'NONE', #107, 0.5000000000000000000, 0.7853981633974458400 ) ;
#20 = AXIS2_PLACEMENT_3D ( 'NONE', #221, #13, #231 ) ;
#21 = CIRCLE ( 'NONE', #300, 0.5000000000000000000 ) ;
#22 = VERTEX_POINT ( 'NONE', #179 ) ;
#23 = ADVANCED_FACE ( 'NONE', ( #64 ), #321, .T. ) ;
#24 = FACE_OUTER_BOUND ( 'NONE', #257, .T. ) ;
#25 = VECTOR ( 'NONE', #177, 39.37007874015748900 ) ;
#26 = EDGE_CURVE ( 'NONE', #247, #203, #150, .T. ) ;
#27 = CARTESIAN_POINT ( 'NONE',  ( -0.05146385017910974600, 1.265629073921969200E-017, 0.0000000000000000000 ) ) ;
#28 = CC_DESIGN_DATE_AND_TIME_ASSIGNMENT ( #290, #333, ( #309 ) ) ;
#29 = LINE ( 'NONE', #62, #25 ) ;
#30 = ADVANCED_FACE ( 'NONE', ( #216 ), #7, .F. ) ;
#31 = DIRECTION ( 'NONE',  ( 0.0000000000000000000, -1.224646799147353200E-016, 1.000000000000000000 ) ) ;
#32 = CYLINDRICAL_SURFACE ( 'NONE', #103, 0.5000000000000000000 ) ;
#33 = ORIENTED_EDGE ( 'NONE', *, *, #94, .T. ) ;
#34 = ORIENTED_EDGE ( 'NONE', *, *, #285, .F. ) ;
#35 = AXIS2_PLACEMENT_3D ( 'NONE', #206, #1, #125 ) ;
#36 = DIRECTION ( 'NONE',  ( 0.0000000000000000000, 0.0000000000000000000, 1.000000000000000000 ) ) ;
#37 = APPROVAL_STATUS ( 'not_yet_approved' ) ;
#38 = DIRECTION ( 'NONE',  ( 0.0000000000000000000, 0.0000000000000000000, -1.000000000000000000 ) ) ;
#39 = EDGE_CURVE ( 'NONE', #253, #151, #288, .T. ) ;
#40 = CARTESIAN_POINT ( 'NONE',  ( -0.05146385017910977400, 1.280553747030123400E-017, 0.4930402875867520600 ) ) ;
#41 = EDGE_LOOP ( 'NONE', ( #133, #123, #196 ) ) ;
#42 = PRODUCT_DEFINITION_FORMATION_WITH_SPECIFIED_SOURCE ( 'ANY', '', #225, .NOT_KNOWN. ) ;
#43 = COORDINATED_UNIVERSAL_TIME_OFFSET ( 5, 0, .BEHIND. ) ;
#44 = CALENDAR_DATE ( 2015, 16, 11 ) ;
#45 = CARTESIAN_POINT ( 'NONE',  ( -0.06889763779527559300, 1.265629073921969200E-017, 0.0000000000000000000 ) ) ;
#46 = ORIENTED_EDGE ( 'NONE', *, *, #26, .F. ) ;
#47 = DIRECTION ( 'NONE',  ( -1.000000000000000000, -0.0000000000000000000, -0.0000000000000000000 ) ) ;
#48 = ORIENTED_EDGE ( 'NONE', *, *, #328, .F. ) ;
#49 =( NAMED_UNIT ( * ) SI_UNIT ( $, .STERADIAN. ) SOLID_ANGLE_UNIT ( ) );
#50 = VECTOR ( 'NONE', #201, 39.37007874015748100 ) ;
#51 = DIRECTION ( 'NONE',  ( 0.0000000000000000000, 0.0000000000000000000, 1.000000000000000000 ) ) ;
#52 = EDGE_CURVE ( 'NONE', #22, #58, #71, .T. ) ;
#53 = AXIS2_PLACEMENT_3D ( 'NONE', #219, #79, #70 ) ;
#54 = DIRECTION ( 'NONE',  ( -1.000000000000000000, -0.0000000000000000000, -0.0000000000000000000 ) ) ;
#55 = DIRECTION ( 'NONE',  ( -1.000000000000000000, -0.0000000000000000000, -0.0000000000000000000 ) ) ;
#56 = ADVANCED_FACE ( 'NONE', ( #207 ), #350, .T. ) ;
#57 = CARTESIAN_POINT ( 'NONE',  ( -0.04450413776585631500, 7.388863069658735600E-017, 0.5000000000000000000 ) ) ;
#58 = VERTEX_POINT ( 'NONE', #14 ) ;
#59 = DIRECTION ( 'NONE',  ( -1.000000000000000000, -0.0000000000000000000, -0.0000000000000000000 ) ) ;
#60 = ORIENTED_EDGE ( 'NONE', *, *, #82, .T. ) ;
#61 = EDGE_CURVE ( 'NONE', #203, #247, #21, .T. ) ;
#62 = CARTESIAN_POINT ( 'NONE',  ( 0.1241267010019927900, 7.303631174359967100E-017, -0.4930402875867466700 ) ) ;
#63 = CALENDAR_DATE ( 2015, 16, 11 ) ;
#64 = FACE_OUTER_BOUND ( 'NONE', #41, .T. ) ;
#65 = APPROVAL ( #37, 'UNSPECIFIED' ) ;
#66 = APPROVAL_ROLE ( '' ) ;
#67 = DIRECTION ( 'NONE',  ( 0.0000000000000000000, 0.0000000000000000000, 1.000000000000000000 ) ) ;
#68 = DIRECTION ( 'NONE',  ( 0.0000000000000000000, 0.0000000000000000000, 1.000000000000000000 ) ) ;
#69 = ORIENTED_EDGE ( 'NONE', *, *, #187, .T. ) ;
#70 = DIRECTION ( 'NONE',  ( 0.0000000000000000000, -1.000000000000000000, 6.982962677686266700E-015 ) ) ;
#71 = CIRCLE ( 'NONE', #263, 2.228346456692913400 ) ;
#72 = CARTESIAN_POINT ( 'NONE',  ( 0.1241267010019927900, 1.265629073921969200E-017, 0.0000000000000000000 ) ) ;
#73 = AXIS2_PLACEMENT_3D ( 'NONE', #154, #255, #99 ) ;
#74 = DIRECTION ( 'NONE',  ( 0.7071067811865492400, 0.0000000000000000000, -0.7071067811865458000 ) ) ;
#75 = FACE_OUTER_BOUND ( 'NONE', #205, .T. ) ;
#76 = ORIENTED_EDGE ( 'NONE', *, *, #134, .T. ) ;
#77 = DIMENSIONAL_EXPONENTS ( 1.000000000000000000, 0.0000000000000000000, 0.0000000000000000000, 0.0000000000000000000, 0.0000000000000000000, 0.0000000000000000000, 0.0000000000000000000 ) ;
#78 = EDGE_CURVE ( 'NONE', #121, #346, #146, .T. ) ;
#79 = DIRECTION ( 'NONE',  ( 0.0000000000000000000, 6.982962677686266700E-015, 1.000000000000000000 ) ) ;
#80 = CC_DESIGN_APPROVAL ( #65, ( #42 ) ) ;
#81 = CARTESIAN_POINT ( 'NONE',  ( 2.297244094488189300, 0.0000000000000000000, 0.0000000000000000000 ) ) ;
#82 = EDGE_CURVE ( 'NONE', #121, #247, #230, .T. ) ;
#83 = DIRECTION ( 'NONE',  ( 0.0000000000000000000, -1.000000000000000000, 6.982962677686266700E-015 ) ) ;
#84 = EDGE_LOOP ( 'NONE', ( #224, #259, #183, #334 ) ) ;
#85 = CARTESIAN_POINT ( 'NONE',  ( -0.04450413776585631500, 1.265629073921969200E-017, 0.0000000000000000000 ) ) ;
#86 = AXIS2_PLACEMENT_3D ( 'NONE', #316, #318, #320 ) ;
#87 = PERSON_AND_ORGANIZATION ( #172, #92 ) ;
#88 = LINE ( 'NONE', #6, #135 ) ;
#89 = CARTESIAN_POINT ( 'NONE',  ( -0.04450413776585631500, 1.265629073921969200E-017, -0.5000000000000000000 ) ) ;
#90 = SECURITY_CLASSIFICATION_LEVEL ( 'unclassified' ) ;
#91 = ORIENTED_EDGE ( 'NONE', *, *, #307, .F. ) ;
#92 = ORGANIZATION ( 'UNSPECIFIED', 'UNSPECIFIED', '' ) ;
#93 = CARTESIAN_POINT ( 'NONE',  ( -0.06889763779527559300, -1.265629073921969200E-017, 8.837840586991745400E-032 ) ) ;
#94 = EDGE_CURVE ( 'NONE', #346, #203, #302, .T. ) ;
#95 = CC_DESIGN_PERSON_AND_ORGANIZATION_ASSIGNMENT ( #310, #232, ( #42 ) ) ;
#96 = CARTESIAN_POINT ( 'NONE',  ( 0.1241267010019927900, 7.346247122009350700E-017, -0.4930402875867466700 ) ) ;
#97 = PERSON_AND_ORGANIZATION ( #172, #92 ) ;
#98 = CIRCLE ( 'NONE', #340, 0.4930402875867466700 ) ;
#99 = DIRECTION ( 'NONE',  ( 0.0000000000000000000, 0.0000000000000000000, 1.000000000000000000 ) ) ;
#100 = CARTESIAN_POINT ( 'NONE',  ( -0.06889763779527559300, 7.388863069658735600E-017, -0.5000000000000000000 ) ) ;
#101 = DIRECTION ( 'NONE',  ( -1.000000000000000000, -0.0000000000000000000, -0.0000000000000000000 ) ) ;
#102 = ORIENTED_EDGE ( 'NONE', *, *, #39, .T. ) ;
#103 = AXIS2_PLACEMENT_3D ( 'NONE', #45, #55, #67 ) ;
#104 = DIRECTION ( 'NONE',  ( -1.000000000000000000, -0.0000000000000000000, -0.0000000000000000000 ) ) ;
#105 = VERTEX_POINT ( 'NONE', #296 ) ;
#106 = DIRECTION ( 'NONE',  ( -1.000000000000000000, -0.0000000000000000000, -0.0000000000000000000 ) ) ;
#107 = AXIS2_PLACEMENT_3D ( 'NONE', #117, #323, #284 ) ;
#108 = ORIENTED_EDGE ( 'NONE', *, *, #61, .T. ) ;
#109 = TOROIDAL_SURFACE ( 'NONE', #173, 0.03801520082676408700, 5.905511811023623100 ) ;
#110 = CALENDAR_DATE ( 2015, 16, 11 ) ;
#111 = EDGE_CURVE ( 'NONE', #162, #121, #88, .T. ) ;
#112 = ORIENTED_EDGE ( 'NONE', *, *, #285, .T. ) ;
#113 = CARTESIAN_POINT ( 'NONE',  ( -0.04450413776585631500, 1.265629073921969200E-017, 0.0000000000000000000 ) ) ;
#114 = CC_DESIGN_PERSON_AND_ORGANIZATION_ASSIGNMENT ( #341, #217, ( #42 ) ) ;
#115 = FACE_OUTER_BOUND ( 'NONE', #325, .T. ) ;
#116 = ADVANCED_BREP_SHAPE_REPRESENTATION ( '4939-E0W', ( #305, #270 ), #197 ) ;
#117 = CARTESIAN_POINT ( 'NONE',  ( -0.04450413776585631500, 1.265629073921969200E-017, 0.0000000000000000000 ) ) ;
#118 = EDGE_LOOP ( 'NONE', ( #327, #69, #76, #277, #223 ) ) ;
#119 = FACE_OUTER_BOUND ( 'NONE', #261, .T. ) ;
#120 = AXIS2_PLACEMENT_3D ( 'NONE', #138, #170, #268 ) ;
#121 = VERTEX_POINT ( 'NONE', #153 ) ;
#122 = DATE_TIME_ROLE ( 'classification_date' ) ;
#123 = ORIENTED_EDGE ( 'NONE', *, *, #328, .T. ) ;
#124 = DIRECTION ( 'NONE',  ( -1.000000000000000000, -0.0000000000000000000, -0.0000000000000000000 ) ) ;
#125 = DIRECTION ( 'NONE',  ( 0.0000000000000000000, 0.0000000000000000000, 1.000000000000000000 ) ) ;
#126 = AXIS2_PLACEMENT_3D ( 'NONE', #246, #54, #51 ) ;
#127 = EDGE_CURVE ( 'NONE', #105, #162, #98, .T. ) ;
#128 = DIRECTION ( 'NONE',  ( 0.0000000000000000000, 0.0000000000000000000, -1.000000000000000000 ) ) ;
#129 = LINE ( 'NONE', #322, #308 ) ;
#130 = ORIENTED_EDGE ( 'NONE', *, *, #61, .F. ) ;
#131 = ADVANCED_FACE ( 'NONE', ( #115 ), #181, .T. ) ;
#132 = CARTESIAN_POINT ( 'NONE',  ( -0.05146385017910977400, 7.318555847468186000E-017, -0.4930402875867520600 ) ) ;
#133 = ORIENTED_EDGE ( 'NONE', *, *, #39, .F. ) ;
#134 = EDGE_CURVE ( 'NONE', #143, #346, #29, .T. ) ;
#135 = VECTOR ( 'NONE', #234, 39.37007874015748900 ) ;
#136 = APPROVAL_PERSON_ORGANIZATION ( #8, #191, #66 ) ;
#137 = SECURITY_CLASSIFICATION ( '', '', #90 ) ;
#138 = CARTESIAN_POINT ( 'NONE',  ( -0.05146385017910974600, 1.265629073921969200E-017, 0.0000000000000000000 ) ) ;
#139 = APPROVAL_DATE_TIME ( #192, #191 ) ;
#140 = ADVANCED_FACE ( 'NONE', ( #194 ), #282, .T. ) ;
#141 = CARTESIAN_POINT ( 'NONE',  ( -0.04450413776585631500, 1.265629073921969200E-017, 0.0000000000000000000 ) ) ;
#142 = APPLICATION_CONTEXT ( 'configuration controlled 3d designs of mechanical parts and assemblies' ) ;
#143 = VERTEX_POINT ( 'NONE', #96 ) ;
#144 = PRODUCT_DEFINITION_SHAPE ( 'NONE', 'NONE',  #309 ) ;
#145 = AXIS2_PLACEMENT_3D ( 'NONE', #331, #147, #342 ) ;
#146 = CIRCLE ( 'NONE', #319, 0.5000000000000001100 ) ;
#147 = DIRECTION ( 'NONE',  ( -1.000000000000000000, -0.0000000000000000000, -0.0000000000000000000 ) ) ;
#148 = DIRECTION ( 'NONE',  ( -1.000000000000000000, -0.0000000000000000000, -0.0000000000000000000 ) ) ;
#149 = DIRECTION ( 'NONE',  ( 1.000000000000000000, 0.0000000000000000000, 0.0000000000000000000 ) ) ;
#150 = CIRCLE ( 'NONE', #190, 0.5000000000000000000 ) ;
#151 = VERTEX_POINT ( 'NONE', #93 ) ;
#152 = ORIENTED_EDGE ( 'NONE', *, *, #239, .F. ) ;
#153 = CARTESIAN_POINT ( 'NONE',  ( 0.1171669885887391400, 1.265629073921969200E-017, 0.5000000000000001100 ) ) ;
#154 = CARTESIAN_POINT ( 'NONE',  ( 0.1241267010019927900, 1.265629073921969200E-017, 0.0000000000000000000 ) ) ;
#155 = AXIS2_PLACEMENT_3D ( 'NONE', #158, #266, #38 ) ;
#156 = CC_DESIGN_PERSON_AND_ORGANIZATION_ASSIGNMENT ( #304, #297, ( #137 ) ) ;
#157 = DIRECTION ( 'NONE',  ( -1.000000000000000000, -0.0000000000000000000, -0.0000000000000000000 ) ) ;
#158 = CARTESIAN_POINT ( 'NONE',  ( 5.836491815462282200, 1.280553747030123400E-017, 0.03801520082676408700 ) ) ;
#159 = APPLICATION_PROTOCOL_DEFINITION ( 'international standard', 'config_control_design', 1994, #142 ) ;
#160 = PERSON_AND_ORGANIZATION_ROLE ( 'design_owner' ) ;
#161 = DIRECTION ( 'NONE',  ( 0.0000000000000000000, 0.0000000000000000000, 1.000000000000000000 ) ) ;
#162 = VERTEX_POINT ( 'NONE', #274 ) ;
#163 = CYLINDRICAL_SURFACE ( 'NONE', #126, 0.5000000000000000000 ) ;
#164 = AXIS2_PLACEMENT_3D ( 'NONE', #27, #281, #265 ) ;
#165 = CIRCLE ( 'NONE', #86, 2.228346456692913400 ) ;
#166 = DIRECTION ( 'NONE',  ( 0.0000000000000000000, 0.0000000000000000000, 1.000000000000000000 ) ) ;
#167 = DIRECTION ( 'NONE',  ( 0.0000000000000000000, 0.0000000000000000000, 1.000000000000000000 ) ) ;
#168 = COORDINATED_UNIVERSAL_TIME_OFFSET ( 5, 0, .BEHIND. ) ;
#169 = ADVANCED_FACE ( 'NONE', ( #202 ), #243, .F. ) ;
#170 = DIRECTION ( 'NONE',  ( -1.000000000000000000, -0.0000000000000000000, -0.0000000000000000000 ) ) ;
#171 = ORIENTED_EDGE ( 'NONE', *, *, #256, .F. ) ;
#172 = PERSON ( 'UNSPECIFIED', 'UNSPECIFIED', 'UNSPECIFIED', ('UNSPECIFIED'), ('UNSPECIFIED'), ('UNSPECIFIED') ) ;
#173 = AXIS2_PLACEMENT_3D ( 'NONE', #301, #157, #286 ) ;
#174 = ORIENTED_EDGE ( 'NONE', *, *, #134, .F. ) ;
#175 = CC_DESIGN_DATE_AND_TIME_ASSIGNMENT ( #186, #122, ( #137 ) ) ;
#176 = APPROVAL_PERSON_ORGANIZATION ( #97, #329, #291 ) ;
#177 = DIRECTION ( 'NONE',  ( -0.7071067811865595600, 8.659560562354783700E-017, -0.7071067811865353600 ) ) ;
#178 = ORIENTED_EDGE ( 'NONE', *, *, #238, .F. ) ;
#179 = CARTESIAN_POINT ( 'NONE',  ( 0.1241267010019929100, 0.4930402875867470600, -3.382501905809578500E-015 ) ) ;
#180 = DIRECTION ( 'NONE',  ( 0.0000000000000000000, -1.000000000000000000, 6.860497997771532400E-015 ) ) ;
#181 = CONICAL_SURFACE ( 'NONE', #10, 0.5000000000000000000, 0.7853981633974458400 ) ;
#182 = AXIS2_PLACEMENT_3D ( 'NONE', #72, #278, #161 ) ;
#183 = ORIENTED_EDGE ( 'NONE', *, *, #127, .F. ) ;
#184 = UNCERTAINTY_MEASURE_WITH_UNIT (LENGTH_MEASURE( 1.000000000000000100E-005 ), #189, 'distance_accuracy_value', 'NONE');
#185 = DIRECTION ( 'NONE',  ( 1.000000000000000000, 0.0000000000000000000, 0.0000000000000000000 ) ) ;
#186 = DATE_AND_TIME ( #218, #332 ) ;
#187 = EDGE_CURVE ( 'NONE', #22, #143, #212, .T. ) ;
#188 = ORIENTED_EDGE ( 'NONE', *, *, #15, .F. ) ;
#189 =( CONVERSION_BASED_UNIT ( 'INCH', #16 ) LENGTH_UNIT ( ) NAMED_UNIT ( #77 ) );
#190 = AXIS2_PLACEMENT_3D ( 'NONE', #85, #106, #68 ) ;
#191 = APPROVAL ( #215, 'UNSPECIFIED' ) ;
#192 = DATE_AND_TIME ( #44, #233 ) ;
#193 = ORIENTED_EDGE ( 'NONE', *, *, #238, .T. ) ;
#194 = FACE_OUTER_BOUND ( 'NONE', #295, .T. ) ;
#195 = CARTESIAN_POINT ( 'NONE',  ( 0.0000000000000000000, 0.0000000000000000000, 0.0000000000000000000 ) ) ;
#196 = ORIENTED_EDGE ( 'NONE', *, *, #15, .T. ) ;
#197 =( GEOMETRIC_REPRESENTATION_CONTEXT ( 3 ) GLOBAL_UNCERTAINTY_ASSIGNED_CONTEXT ( ( #184 ) ) GLOBAL_UNIT_ASSIGNED_CONTEXT ( ( #189, #236, #49 ) ) REPRESENTATION_CONTEXT ( 'NONE', 'WORKASPACE' ) );
#198 = ORIENTED_EDGE ( 'NONE', *, *, #307, .T. ) ;
#199 = LOCAL_TIME ( 16, 55, 19.00000000000000000, #168 ) ;
#200 = EDGE_CURVE ( 'NONE', #244, #247, #129, .T. ) ;
#201 = DIRECTION ( 'NONE',  ( -1.000000000000000000, -0.0000000000000000000, -0.0000000000000000000 ) ) ;
#202 = FACE_OUTER_BOUND ( 'NONE', #84, .T. ) ;
#203 = VERTEX_POINT ( 'NONE', #337 ) ;
#204 = CARTESIAN_POINT ( 'NONE',  ( 5.836491815462282200, 1.280553747030123400E-017, 0.0000000000000000000 ) ) ;
#205 = EDGE_LOOP ( 'NONE', ( #112, #102, #188 ) ) ;
#206 = CARTESIAN_POINT ( 'NONE',  ( 0.1241267010019927900, 1.265629073921969200E-017, 0.0000000000000000000 ) ) ;
#207 = FACE_OUTER_BOUND ( 'NONE', #118, .T. ) ;
#208 = AXIS2_PLACEMENT_3D ( 'NONE', #204, #124, #167 ) ;
#209 = CC_DESIGN_APPROVAL ( #191, ( #137 ) ) ;
#210 =( LENGTH_UNIT ( ) NAMED_UNIT ( * ) SI_UNIT ( $, .METRE. ) );
#211 = CARTESIAN_POINT ( 'NONE',  ( 5.836491815462282200, 1.746105687144528100E-017, -0.03801520082676408700 ) ) ;
#212 = CIRCLE ( 'NONE', #35, 0.4930402875867466700 ) ;
#213 = ORIENTED_EDGE ( 'NONE', *, *, #187, .F. ) ;
#214 = ORIENTED_EDGE ( 'NONE', *, *, #239, .T. ) ;
#215 = APPROVAL_STATUS ( 'not_yet_approved' ) ;
#216 = FACE_OUTER_BOUND ( 'NONE', #345, .T. ) ;
#217 = PERSON_AND_ORGANIZATION_ROLE ( 'design_supplier' ) ;
#218 = CALENDAR_DATE ( 2015, 16, 11 ) ;
#219 = CARTESIAN_POINT ( 'NONE',  ( 2.297244094488189300, 0.0000000000000000000, 0.0000000000000000000 ) ) ;
#220 = CARTESIAN_POINT ( 'NONE',  ( -0.06889763779527559300, 1.265629073921969200E-017, 0.5000000000000000000 ) ) ;
#221 = CARTESIAN_POINT ( 'NONE',  ( 0.1241267010019927900, 1.265629073921969200E-017, 0.0000000000000000000 ) ) ;
#222 = MECHANICAL_CONTEXT ( 'NONE', #142, 'mechanical' ) ;
#223 = ORIENTED_EDGE ( 'NONE', *, *, #111, .F. ) ;
#224 = ORIENTED_EDGE ( 'NONE', *, *, #52, .F. ) ;
#225 = PRODUCT ( '4939-E0W', '4939-E0W', '', ( #222 ) ) ;
#226 = CIRCLE ( 'NONE', #120, 0.4930402875867466200 ) ;
#227 = AXIS2_PLACEMENT_3D ( 'NONE', #211, #298, #31 ) ;
#228 = COORDINATED_UNIVERSAL_TIME_OFFSET ( 5, 0, .BEHIND. ) ;
#229 = CC_DESIGN_SECURITY_CLASSIFICATION ( #137, ( #42 ) ) ;
#230 = LINE ( 'NONE', #220, #264 ) ;
#231 = DIRECTION ( 'NONE',  ( 0.0000000000000000000, 0.0000000000000000000, 1.000000000000000000 ) ) ;
#232 = PERSON_AND_ORGANIZATION_ROLE ( 'creator' ) ;
#233 = LOCAL_TIME ( 16, 55, 19.00000000000000000, #311 ) ;
#234 = DIRECTION ( 'NONE',  ( -0.7071067811865595600, 0.0000000000000000000, 0.7071067811865353600 ) ) ;
#235 = DATE_AND_TIME ( #63, #199 ) ;
#236 =( NAMED_UNIT ( * ) PLANE_ANGLE_UNIT ( ) SI_UNIT ( $, .RADIAN. ) );
#237 = APPLICATION_PROTOCOL_DEFINITION ( 'international standard', 'config_control_design', 1994, #3 ) ;
#238 = EDGE_CURVE ( 'NONE', #143, #105, #336, .T. ) ;
#239 = EDGE_CURVE ( 'NONE', #253, #203, #344, .T. ) ;
#240 = ORIENTED_EDGE ( 'NONE', *, *, #26, .T. ) ;
#241 = ADVANCED_FACE ( 'NONE', ( #119 ), #163, .T. ) ;
#242 = SHAPE_DEFINITION_REPRESENTATION ( #144, #116 ) ;
#243 = SPHERICAL_SURFACE ( 'NONE', #53, 2.228346456692913400 ) ;
#244 = VERTEX_POINT ( 'NONE', #40 ) ;
#245 = AXIS2_PLACEMENT_3D ( 'NONE', #81, #273, #83 ) ;
#246 = CARTESIAN_POINT ( 'NONE',  ( -0.06889763779527559300, 1.265629073921969200E-017, 0.0000000000000000000 ) ) ;
#247 = VERTEX_POINT ( 'NONE', #57 ) ;
#248 = PRODUCT_RELATED_PRODUCT_CATEGORY ( 'detail', '', ( #225 ) ) ;
#249 = DIRECTION ( 'NONE',  ( -0.0000000000000000000, 6.860497997771531600E-015, 1.000000000000000000 ) ) ;
#250 = ADVANCED_FACE ( 'NONE', ( #24 ), #32, .T. ) ;
#251 = ORIENTED_EDGE ( 'NONE', *, *, #200, .F. ) ;
#252 = CIRCLE ( 'NONE', #164, 0.4930402875867466200 ) ;
#253 = VERTEX_POINT ( 'NONE', #132 ) ;
#254 = LOCAL_TIME ( 16, 55, 19.00000000000000000, #228 ) ;
#255 = DIRECTION ( 'NONE',  ( -1.000000000000000000, -0.0000000000000000000, -0.0000000000000000000 ) ) ;
#256 = EDGE_CURVE ( 'NONE', #105, #58, #165, .T. ) ;
#257 = EDGE_LOOP ( 'NONE', ( #18, #33, #46, #4 ) ) ;
#258 = FACE_OUTER_BOUND ( 'NONE', #315, .T. ) ;
#259 = ORIENTED_EDGE ( 'NONE', *, *, #347, .F. ) ;
#260 = PERSON_AND_ORGANIZATION ( #172, #92 ) ;
#261 = EDGE_LOOP ( 'NONE', ( #338, #198, #60, #130 ) ) ;
#262 = LOCAL_TIME ( 16, 55, 19.00000000000000000, #43 ) ;
#263 = AXIS2_PLACEMENT_3D ( 'NONE', #292, #249, #180 ) ;
#264 = VECTOR ( 'NONE', #59, 39.37007874015748100 ) ;
#265 = DIRECTION ( 'NONE',  ( 0.0000000000000000000, 0.0000000000000000000, 1.000000000000000000 ) ) ;
#266 = DIRECTION ( 'NONE',  ( 0.0000000000000000000, -1.000000000000000000, 0.0000000000000000000 ) ) ;
#267 = VECTOR ( 'NONE', #74, 39.37007874015748100 ) ;
#268 = DIRECTION ( 'NONE',  ( 0.0000000000000000000, 0.0000000000000000000, 1.000000000000000000 ) ) ;
#269 = ORIENTED_EDGE ( 'NONE', *, *, #200, .T. ) ;
#270 = AXIS2_PLACEMENT_3D ( 'NONE', #195, #326, #149 ) ;
#271 = CARTESIAN_POINT ( 'NONE',  ( 0.1171669885887391400, 7.388863069658736800E-017, -0.5000000000000001100 ) ) ;
#272 = COORDINATED_UNIVERSAL_TIME_OFFSET ( 5, 0, .BEHIND. ) ;
#273 = DIRECTION ( 'NONE',  ( 0.0000000000000000000, 6.982962677686266700E-015, 1.000000000000000000 ) ) ;
#274 = CARTESIAN_POINT ( 'NONE',  ( 0.1241267010019927900, 1.265629073921969200E-017, 0.4930402875867466700 ) ) ;
#275 = APPROVAL_PERSON_ORGANIZATION ( #260, #65, #313 ) ;
#276 = ADVANCED_FACE ( 'NONE', ( #258 ), #19, .T. ) ;
#277 = ORIENTED_EDGE ( 'NONE', *, *, #78, .F. ) ;
#278 = DIRECTION ( 'NONE',  ( -1.000000000000000000, -0.0000000000000000000, -0.0000000000000000000 ) ) ;
#279 = AXIS2_PLACEMENT_3D ( 'NONE', #11, #148, #303 ) ;
#280 = CALENDAR_DATE ( 2015, 16, 11 ) ;
#281 = DIRECTION ( 'NONE',  ( -1.000000000000000000, -0.0000000000000000000, -0.0000000000000000000 ) ) ;
#282 = CONICAL_SURFACE ( 'NONE', #20, 0.4930402875867466700, 0.7853981633974311800 ) ;
#283 = CLOSED_SHELL ( 'NONE', ( #30, #56, #250, #131, #12, #23, #276, #241, #140, #169 ) ) ;
#284 = DIRECTION ( 'NONE',  ( 0.0000000000000000000, 0.0000000000000000000, -1.000000000000000000 ) ) ;
#285 = EDGE_CURVE ( 'NONE', #244, #253, #226, .T. ) ;
#286 = DIRECTION ( 'NONE',  ( 0.0000000000000000000, 0.0000000000000000000, 1.000000000000000000 ) ) ;
#287 = DIRECTION ( 'NONE',  ( 0.7071067811865492400, 8.659560562354911900E-017, 0.7071067811865458000 ) ) ;
#288 = CIRCLE ( 'NONE', #227, 5.905511811023623100 ) ;
#289 = CC_DESIGN_PERSON_AND_ORGANIZATION_ASSIGNMENT ( #87, #160, ( #225 ) ) ;
#290 = DATE_AND_TIME ( #280, #262 ) ;
#291 = APPROVAL_ROLE ( '' ) ;
#292 = CARTESIAN_POINT ( 'NONE',  ( 2.297244094488189300, 0.0000000000000000000, 0.0000000000000000000 ) ) ;
#293 = CIRCLE ( 'NONE', #155, 5.905511811023623100 ) ;
#294 = DESIGN_CONTEXT ( 'detailed design', #3, 'design' ) ;
#295 = EDGE_LOOP ( 'NONE', ( #174, #193, #317, #330, #91 ) ) ;
#296 = CARTESIAN_POINT ( 'NONE',  ( 0.1241267010019929100, -0.4930402875867470600, 3.442881926813958500E-015 ) ) ;
#297 = PERSON_AND_ORGANIZATION_ROLE ( 'classification_officer' ) ;
#298 = DIRECTION ( 'NONE',  ( -0.0000000000000000000, 1.000000000000000000, 1.224646799147353200E-016 ) ) ;
#299 = APPROVAL_DATE_TIME ( #2, #65 ) ;
#300 = AXIS2_PLACEMENT_3D ( 'NONE', #141, #101, #314 ) ;
#301 = CARTESIAN_POINT ( 'NONE',  ( 5.836491815462282200, 1.280553747030123400E-017, 0.0000000000000000000 ) ) ;
#302 = LINE ( 'NONE', #100, #50 ) ;
#303 = DIRECTION ( 'NONE',  ( 0.0000000000000000000, 0.0000000000000000000, 1.000000000000000000 ) ) ;
#304 = PERSON_AND_ORGANIZATION ( #172, #92 ) ;
#305 = MANIFOLD_SOLID_BREP ( '4939-001-1-solid1', #283 ) ;
#306 = CIRCLE ( 'NONE', #145, 0.5000000000000001100 ) ;
#307 = EDGE_CURVE ( 'NONE', #346, #121, #306, .T. ) ;
#308 = VECTOR ( 'NONE', #287, 39.37007874015748100 ) ;
#309 = PRODUCT_DEFINITION ( 'UNKNOWN', '', #42, #294 ) ;
#310 = PERSON_AND_ORGANIZATION ( #172, #92 ) ;
#311 = COORDINATED_UNIVERSAL_TIME_OFFSET ( 5, 0, .BEHIND. ) ;
#312 = PERSON_AND_ORGANIZATION ( #172, #92 ) ;
#313 = APPROVAL_ROLE ( '' ) ;
#314 = DIRECTION ( 'NONE',  ( 0.0000000000000000000, 0.0000000000000000000, 1.000000000000000000 ) ) ;
#315 = EDGE_LOOP ( 'NONE', ( #251, #48, #214, #108 ) ) ;
#316 = CARTESIAN_POINT ( 'NONE',  ( 2.297244094488189300, 0.0000000000000000000, 0.0000000000000000000 ) ) ;
#317 = ORIENTED_EDGE ( 'NONE', *, *, #127, .T. ) ;
#318 = DIRECTION ( 'NONE',  ( 0.0000000000000000000, -6.982962677686266700E-015, -1.000000000000000000 ) ) ;
#319 = AXIS2_PLACEMENT_3D ( 'NONE', #5, #104, #166 ) ;
#320 = DIRECTION ( 'NONE',  ( 0.0000000000000000000, 1.000000000000000000, -6.982962677686265900E-015 ) ) ;
#321 = TOROIDAL_SURFACE ( 'NONE', #208, 0.03801520082676408700, 5.905511811023623100 ) ;
#322 = CARTESIAN_POINT ( 'NONE',  ( -0.04450413776585631500, 7.388863069658735600E-017, 0.5000000000000000000 ) ) ;
#323 = DIRECTION ( 'NONE',  ( 1.000000000000000000, 0.0000000000000000000, 0.0000000000000000000 ) ) ;
#324 = CARTESIAN_POINT ( 'NONE',  ( 0.1241267010019927900, 1.265629073921969200E-017, 0.0000000000000000000 ) ) ;
#325 = EDGE_LOOP ( 'NONE', ( #34, #269, #240, #152 ) ) ;
#326 = DIRECTION ( 'NONE',  ( 0.0000000000000000000, 0.0000000000000000000, 1.000000000000000000 ) ) ;
#327 = ORIENTED_EDGE ( 'NONE', *, *, #347, .T. ) ;
#328 = EDGE_CURVE ( 'NONE', #253, #244, #252, .T. ) ;
#329 = APPROVAL ( #9, 'UNSPECIFIED' ) ;
#330 = ORIENTED_EDGE ( 'NONE', *, *, #111, .T. ) ;
#331 = CARTESIAN_POINT ( 'NONE',  ( 0.1171669885887391400, 1.265629073921969200E-017, 0.0000000000000000000 ) ) ;
#332 = LOCAL_TIME ( 16, 55, 19.00000000000000000, #272 ) ;
#333 = DATE_TIME_ROLE ( 'creation_date' ) ;
#334 = ORIENTED_EDGE ( 'NONE', *, *, #256, .T. ) ;
#335 = CIRCLE ( 'NONE', #182, 0.4930402875867466700 ) ;
#336 = CIRCLE ( 'NONE', #73, 0.4930402875867466700 ) ;
#337 = CARTESIAN_POINT ( 'NONE',  ( -0.04450413776585631500, 1.265629073921969200E-017, -0.5000000000000000000 ) ) ;
#338 = ORIENTED_EDGE ( 'NONE', *, *, #94, .F. ) ;
#339 = ORIENTED_EDGE ( 'NONE', *, *, #52, .T. ) ;
#340 = AXIS2_PLACEMENT_3D ( 'NONE', #324, #47, #36 ) ;
#341 = PERSON_AND_ORGANIZATION ( #172, #92 ) ;
#342 = DIRECTION ( 'NONE',  ( 0.0000000000000000000, 0.0000000000000000000, 1.000000000000000000 ) ) ;
#343 = PERSON_AND_ORGANIZATION_ROLE ( 'creator' ) ;
#344 = LINE ( 'NONE', #89, #267 ) ;
#345 = EDGE_LOOP ( 'NONE', ( #213, #339, #171, #178 ) ) ;
#346 = VERTEX_POINT ( 'NONE', #271 ) ;
#347 = EDGE_CURVE ( 'NONE', #162, #22, #335, .T. ) ;
#348 = APPROVAL_DATE_TIME ( #235, #329 ) ;
#349 = CC_DESIGN_APPROVAL ( #329, ( #309 ) ) ;
#350 = CONICAL_SURFACE ( 'NONE', #279, 0.4930402875867466700, 0.7853981633974311800 ) ;
ENDSEC;
END-ISO-10303-21;
