ISO-10303-21;
HEADER;
FILE_DESCRIPTION (( 'STEP AP203' ),
    '1' );
FILE_NAME ('4285-E0W.STEP',
    '2015-05-29T14:22:09',
    ( 'admin' ),
    ( '' ),
    'SwSTEP 2.0',
    'SolidWorks 2014',
    '' );
FILE_SCHEMA (( 'CONFIG_CONTROL_DESIGN' ));
ENDSEC;

DATA;
#1 = CARTESIAN_POINT ( 'NONE',  ( -1.249999999999994700, 0.0000000000000000000, 0.0000000000000000000 ) ) ;
#2 = ADVANCED_FACE ( 'NONE', ( #183 ), #85, .T. ) ;
#3 = DIRECTION ( 'NONE',  ( 1.000000000000000000, 0.0000000000000000000, 0.0000000000000000000 ) ) ;
#4 = VECTOR ( 'NONE', #194, 1000.000000000000100 ) ;
#5 = ORIENTED_EDGE ( 'NONE', *, *, #284, .F. ) ;
#6 = DIRECTION ( 'NONE',  ( 0.0000000000000000000, 0.0000000000000000000, -1.000000000000000000 ) ) ;
#7 = DIRECTION ( 'NONE',  ( 1.000000000000000000, 0.0000000000000000000, 0.0000000000000000000 ) ) ;
#8 = VERTEX_POINT ( 'NONE', #168 ) ;
#9 = APPROVAL_DATE_TIME ( #159, #28 ) ;
#10 = ORIENTED_EDGE ( 'NONE', *, *, #97, .T. ) ;
#11 = PRODUCT_DEFINITION_FORMATION_WITH_SPECIFIED_SOURCE ( 'ANY', '', #235, .NOT_KNOWN. ) ;
#12 = UNCERTAINTY_MEASURE_WITH_UNIT (LENGTH_MEASURE( 1.000000000000000100E-005 ), #86, 'distance_accuracy_value', 'NONE');
#13 = DIRECTION ( 'NONE',  ( 0.0000000000000000000, 0.0000000000000000000, 1.000000000000000000 ) ) ;
#14 = CC_DESIGN_SECURITY_CLASSIFICATION ( #150, ( #11 ) ) ;
#15 = CC_DESIGN_DATE_AND_TIME_ASSIGNMENT ( #118, #29, ( #59 ) ) ;
#16 = ADVANCED_FACE ( 'NONE', ( #53 ), #104, .T. ) ;
#17 = ADVANCED_BREP_SHAPE_REPRESENTATION ( '4285-E0W', ( #56, #71 ), #115 ) ;
#18 = CC_DESIGN_DATE_AND_TIME_ASSIGNMENT ( #114, #72, ( #150 ) ) ;
#19 = DIRECTION ( 'NONE',  ( 0.0000000000000000000, 0.0000000000000000000, -1.000000000000000000 ) ) ;
#20 = EDGE_LOOP ( 'NONE', ( #242, #141, #35, #89 ) ) ;
#21 = CARTESIAN_POINT ( 'NONE',  ( -1.500000000000000000, 1.524685264938454600E-015, 12.44999999999999900 ) ) ;
#22 = DIRECTION ( 'NONE',  ( -1.000000000000000000, -0.0000000000000000000, -0.0000000000000000000 ) ) ;
#23 = COORDINATED_UNIVERSAL_TIME_OFFSET ( 5, 0, .BEHIND. ) ;
#24 = CARTESIAN_POINT ( 'NONE',  ( -78.99998397833192600, 6.219817372713041000E-018, -0.05078866312346972500 ) ) ;
#25 = CIRCLE ( 'NONE', #179, 12.70000000000000500 ) ;
#26 = TOROIDAL_SURFACE ( 'NONE', #198, 0.05078866312346972500, 80.49999999999998600 ) ;
#27 = EDGE_LOOP ( 'NONE', ( #283, #213, #5, #196 ) ) ;
#28 = APPROVAL ( #78, 'UNSPECIFIED' ) ;
#29 = DATE_TIME_ROLE ( 'creation_date' ) ;
#30 = DIRECTION ( 'NONE',  ( 0.0000000000000000000, 0.0000000000000000000, 1.000000000000000000 ) ) ;
#31 = APPROVAL_STATUS ( 'not_yet_approved' ) ;
#32 = ADVANCED_FACE ( 'NONE', ( #122 ), #200, .T. ) ;
#33 = CC_DESIGN_PERSON_AND_ORGANIZATION_ASSIGNMENT ( #291, #190, ( #59 ) ) ;
#34 = DIRECTION ( 'NONE',  ( -1.000000000000000000, -0.0000000000000000000, -0.0000000000000000000 ) ) ;
#35 = ORIENTED_EDGE ( 'NONE', *, *, #120, .F. ) ;
#36 = LINE ( 'NONE', #146, #4 ) ;
#37 = VECTOR ( 'NONE', #224, 1000.000000000000100 ) ;
#38 = DIRECTION ( 'NONE',  ( 0.0000000000000000000, 0.0000000000000000000, -1.000000000000000000 ) ) ;
#39 = ORIENTED_EDGE ( 'NONE', *, *, #225, .T. ) ;
#40 = CARTESIAN_POINT ( 'NONE',  ( -1.500000000000000000, 0.0000000000000000000, 0.0000000000000000000 ) ) ;
#41 = ORIENTED_EDGE ( 'NONE', *, *, #220, .T. ) ;
#42 = CC_DESIGN_APPROVAL ( #50, ( #59 ) ) ;
#43 = VERTEX_POINT ( 'NONE', #180 ) ;
#44 = ORIENTED_EDGE ( 'NONE', *, *, #275, .T. ) ;
#45 = LINE ( 'NONE', #234, #184 ) ;
#46 = SECURITY_CLASSIFICATION_LEVEL ( 'unclassified' ) ;
#47 = APPROVAL ( #31, 'UNSPECIFIED' ) ;
#48 = CARTESIAN_POINT ( 'NONE',  ( 0.2500000000000141000, 0.0000000000000000000, 0.0000000000000000000 ) ) ;
#49 = LOCAL_TIME ( 10, 22, 9.000000000000000000, #145 ) ;
#50 = APPROVAL ( #148, 'UNSPECIFIED' ) ;
#51 = PERSON_AND_ORGANIZATION_ROLE ( 'creator' ) ;
#52 = ORIENTED_EDGE ( 'NONE', *, *, #284, .T. ) ;
#53 = FACE_OUTER_BOUND ( 'NONE', #77, .T. ) ;
#54 = CALENDAR_DATE ( 2015, 29, 5 ) ;
#55 = DIRECTION ( 'NONE',  ( 0.0000000000000000000, 0.0000000000000000000, 1.000000000000000000 ) ) ;
#56 = MANIFOLD_SOLID_BREP ( '4285-001-1-solid1', #162 ) ;
#57 = LINE ( 'NONE', #91, #79 ) ;
#58 = LOCAL_TIME ( 10, 22, 9.000000000000000000, #111 ) ;
#59 = PRODUCT_DEFINITION ( 'UNKNOWN', '', #11, #192 ) ;
#60 = CALENDAR_DATE ( 2015, 29, 5 ) ;
#61 = VERTEX_POINT ( 'NONE', #204 ) ;
#62 = DIRECTION ( 'NONE',  ( 0.0000000000000000000, -1.224646799147353200E-016, 1.000000000000000000 ) ) ;
#63 = ORIENTED_EDGE ( 'NONE', *, *, #267, .T. ) ;
#64 = LINE ( 'NONE', #76, #285 ) ;
#65 = PRODUCT_DEFINITION_SHAPE ( 'NONE', 'NONE',  #59 ) ;
#66 = CC_DESIGN_PERSON_AND_ORGANIZATION_ASSIGNMENT ( #280, #268, ( #235 ) ) ;
#67 = FACE_OUTER_BOUND ( 'NONE', #143, .T. ) ;
#68 = EDGE_CURVE ( 'NONE', #96, #93, #88, .T. ) ;
#69 = DIRECTION ( 'NONE',  ( -0.0000000000000000000, 1.000000000000000000, 1.224646799147353200E-016 ) ) ;
#70 = ORIENTED_EDGE ( 'NONE', *, *, #287, .T. ) ;
#71 = AXIS2_PLACEMENT_3D ( 'NONE', #253, #202, #201 ) ;
#72 = DATE_TIME_ROLE ( 'classification_date' ) ;
#73 = CARTESIAN_POINT ( 'NONE',  ( 0.2500000000000141000, 0.0000000000000000000, 0.0000000000000000000 ) ) ;
#74 = ORIENTED_EDGE ( 'NONE', *, *, #296, .F. ) ;
#75 = CIRCLE ( 'NONE', #232, 12.44999999999999900 ) ;
#76 = CARTESIAN_POINT ( 'NONE',  ( 0.2500000000000141000, 0.0000000000000000000, 12.70000000000000500 ) ) ;
#77 = EDGE_LOOP ( 'NONE', ( #52, #39, #171, #278 ) ) ;
#78 = APPROVAL_STATUS ( 'not_yet_approved' ) ;
#79 = VECTOR ( 'NONE', #165, 1000.000000000000100 ) ;
#80 = CARTESIAN_POINT ( 'NONE',  ( 0.2500000000000141000, 0.0000000000000000000, 0.0000000000000000000 ) ) ;
#81 = CIRCLE ( 'NONE', #151, 12.70000000000000500 ) ;
#82 = EDGE_LOOP ( 'NONE', ( #112, #299, #246, #63 ) ) ;
#83 = ADVANCED_FACE ( 'NONE', ( #154 ), #173, .T. ) ;
#84 = CONICAL_SURFACE ( 'NONE', #222, 12.44999999999999900, 0.7853981633974482800 ) ;
#85 = CONICAL_SURFACE ( 'NONE', #300, 12.70000000000000500, 0.7065046756567755500 ) ;
#86 =( LENGTH_UNIT ( ) NAMED_UNIT ( * ) SI_UNIT ( .MILLI., .METRE. ) );
#87 = DIRECTION ( 'NONE',  ( 0.0000000000000000000, 0.0000000000000000000, 1.000000000000000000 ) ) ;
#88 = LINE ( 'NONE', #21, #37 ) ;
#89 = ORIENTED_EDGE ( 'NONE', *, *, #158, .F. ) ;
#90 = CIRCLE ( 'NONE', #132, 12.45349243332361100 ) ;
#91 = CARTESIAN_POINT ( 'NONE',  ( 0.2500000000000141000, 1.555301434917139000E-015, -12.70000000000000500 ) ) ;
#92 = ORIENTED_EDGE ( 'NONE', *, *, #249, .F. ) ;
#93 = VERTEX_POINT ( 'NONE', #277 ) ;
#94 = ADVANCED_FACE ( 'NONE', ( #290 ), #172, .T. ) ;
#95 = DATE_AND_TIME ( #60, #49 ) ;
#96 = VERTEX_POINT ( 'NONE', #252 ) ;
#97 = EDGE_CURVE ( 'NONE', #96, #43, #75, .T. ) ;
#98 = ORGANIZATION ( 'UNSPECIFIED', 'UNSPECIFIED', '' ) ;
#99 = PERSON ( 'UNSPECIFIED', 'UNSPECIFIED', 'UNSPECIFIED', ('UNSPECIFIED'), ('UNSPECIFIED'), ('UNSPECIFIED') ) ;
#100 = VECTOR ( 'NONE', #149, 1000.000000000000000 ) ;
#101 = ORIENTED_EDGE ( 'NONE', *, *, #241, .F. ) ;
#102 = APPROVAL_PERSON_ORGANIZATION ( #205, #50, #127 ) ;
#103 = APPROVAL_PERSON_ORGANIZATION ( #134, #47, #176 ) ;
#104 = CYLINDRICAL_SURFACE ( 'NONE', #245, 12.70000000000000500 ) ;
#105 = ADVANCED_FACE ( 'NONE', ( #263 ), #84, .T. ) ;
#106 = VERTEX_POINT ( 'NONE', #293 ) ;
#107 = ORIENTED_EDGE ( 'NONE', *, *, #296, .T. ) ;
#108 = CARTESIAN_POINT ( 'NONE',  ( 0.5388300635474074800, 0.0000000000000000000, 0.0000000000000000000 ) ) ;
#109 = APPLICATION_CONTEXT ( 'configuration controlled 3d designs of mechanical parts and assemblies' ) ;
#110 = CC_DESIGN_PERSON_AND_ORGANIZATION_ASSIGNMENT ( #166, #208, ( #11 ) ) ;
#111 = COORDINATED_UNIVERSAL_TIME_OFFSET ( 5, 0, .BEHIND. ) ;
#112 = ORIENTED_EDGE ( 'NONE', *, *, #225, .F. ) ;
#113 = DIRECTION ( 'NONE',  ( 0.0000000000000000000, 0.0000000000000000000, 1.000000000000000000 ) ) ;
#114 = DATE_AND_TIME ( #238, #209 ) ;
#115 =( GEOMETRIC_REPRESENTATION_CONTEXT ( 3 ) GLOBAL_UNCERTAINTY_ASSIGNED_CONTEXT ( ( #12 ) ) GLOBAL_UNIT_ASSIGNED_CONTEXT ( ( #86, #181, #258 ) ) REPRESENTATION_CONTEXT ( 'NONE', 'WORKASPACE' ) );
#116 = CARTESIAN_POINT ( 'NONE',  ( 0.2500000000000141000, 0.0000000000000000000, 0.0000000000000000000 ) ) ;
#117 = ORIENTED_EDGE ( 'NONE', *, *, #136, .T. ) ;
#118 = DATE_AND_TIME ( #54, #58 ) ;
#119 = COORDINATED_UNIVERSAL_TIME_OFFSET ( 5, 0, .BEHIND. ) ;
#120 = EDGE_CURVE ( 'NONE', #8, #93, #170, .T. ) ;
#121 = VERTEX_POINT ( 'NONE', #282 ) ;
#122 = FACE_OUTER_BOUND ( 'NONE', #163, .T. ) ;
#123 = DIRECTION ( 'NONE',  ( 0.0000000000000000000, 0.0000000000000000000, 1.000000000000000000 ) ) ;
#124 = CARTESIAN_POINT ( 'NONE',  ( -1.500000000000000000, 1.555301434917139000E-015, -12.70000000000000500 ) ) ;
#125 = DIRECTION ( 'NONE',  ( 0.0000000000000000000, 0.0000000000000000000, -1.000000000000000000 ) ) ;
#126 = CYLINDRICAL_SURFACE ( 'NONE', #186, 12.70000000000000500 ) ;
#127 = APPROVAL_ROLE ( '' ) ;
#128 = CARTESIAN_POINT ( 'NONE',  ( 0.2500000000000141000, 1.555301434917139000E-015, -12.70000000000000500 ) ) ;
#129 = AXIS2_PLACEMENT_3D ( 'NONE', #260, #262, #215 ) ;
#130 = ADVANCED_FACE ( 'NONE', ( #279 ), #26, .T. ) ;
#131 = PLANE ( 'NONE',  #156 ) ;
#132 = AXIS2_PLACEMENT_3D ( 'NONE', #239, #236, #233 ) ;
#133 = CIRCLE ( 'NONE', #135, 12.70000000000000500 ) ;
#134 = PERSON_AND_ORGANIZATION ( #99, #98 ) ;
#135 = AXIS2_PLACEMENT_3D ( 'NONE', #116, #229, #123 ) ;
#136 = EDGE_CURVE ( 'NONE', #259, #106, #244, .T. ) ;
#137 = APPROVAL_DATE_TIME ( #264, #47 ) ;
#138 = DIRECTION ( 'NONE',  ( 0.0000000000000000000, -1.000000000000000000, 0.0000000000000000000 ) ) ;
#139 = FACE_OUTER_BOUND ( 'NONE', #82, .T. ) ;
#140 = DIRECTION ( 'NONE',  ( 0.0000000000000000000, 0.0000000000000000000, -1.000000000000000000 ) ) ;
#141 = ORIENTED_EDGE ( 'NONE', *, *, #68, .T. ) ;
#142 = LOCAL_TIME ( 10, 22, 9.000000000000000000, #217 ) ;
#143 = EDGE_LOOP ( 'NONE', ( #107, #10 ) ) ;
#144 = CIRCLE ( 'NONE', #191, 80.49999999999998600 ) ;
#145 = COORDINATED_UNIVERSAL_TIME_OFFSET ( 5, 0, .BEHIND. ) ;
#146 = CARTESIAN_POINT ( 'NONE',  ( -1.500000000000000000, 0.0000000000000000000, -12.44999999999999900 ) ) ;
#147 = AXIS2_PLACEMENT_3D ( 'NONE', #108, #294, #113 ) ;
#148 = APPROVAL_STATUS ( 'not_yet_approved' ) ;
#149 = DIRECTION ( 'NONE',  ( -1.000000000000000000, -0.0000000000000000000, -0.0000000000000000000 ) ) ;
#150 = SECURITY_CLASSIFICATION ( '', '', #46 ) ;
#151 = AXIS2_PLACEMENT_3D ( 'NONE', #272, #3, #6 ) ;
#152 = EDGE_LOOP ( 'NONE', ( #189, #41, #70 ) ) ;
#153 = ORIENTED_EDGE ( 'NONE', *, *, #158, .T. ) ;
#154 = FACE_OUTER_BOUND ( 'NONE', #256, .T. ) ;
#155 = CC_DESIGN_PERSON_AND_ORGANIZATION_ASSIGNMENT ( #295, #51, ( #11 ) ) ;
#156 = AXIS2_PLACEMENT_3D ( 'NONE', #288, #301, #19 ) ;
#157 = CARTESIAN_POINT ( 'NONE',  ( -78.99998397833192600, 0.0000000000000000000, 0.0000000000000000000 ) ) ;
#158 = EDGE_CURVE ( 'NONE', #43, #8, #36, .T. ) ;
#159 = DATE_AND_TIME ( #195, #142 ) ;
#160 = CC_DESIGN_APPROVAL ( #47, ( #150 ) ) ;
#161 = DIRECTION ( 'NONE',  ( -1.000000000000000000, -0.0000000000000000000, -0.0000000000000000000 ) ) ;
#162 = CLOSED_SHELL ( 'NONE', ( #105, #2, #83, #16, #248, #199, #130, #94, #32 ) ) ;
#163 = EDGE_LOOP ( 'NONE', ( #211, #74, #153, #243 ) ) ;
#164 = CARTESIAN_POINT ( 'NONE',  ( -78.99998397833192600, 0.0000000000000000000, 0.0000000000000000000 ) ) ;
#165 = DIRECTION ( 'NONE',  ( -0.7606356092392212400, 7.950150748945333400E-017, -0.6491790738750584700 ) ) ;
#166 = PERSON_AND_ORGANIZATION ( #99, #98 ) ;
#167 = DIRECTION ( 'NONE',  ( 0.0000000000000000000, 0.0000000000000000000, -1.000000000000000000 ) ) ;
#168 = CARTESIAN_POINT ( 'NONE',  ( -1.249999999999994700, 1.555301434917139000E-015, -12.70000000000000500 ) ) ;
#169 = DIRECTION ( 'NONE',  ( 0.0000000000000000000, 0.0000000000000000000, 1.000000000000000000 ) ) ;
#170 = CIRCLE ( 'NONE', #214, 12.70000000000000500 ) ;
#171 = ORIENTED_EDGE ( 'NONE', *, *, #120, .T. ) ;
#172 = CONICAL_SURFACE ( 'NONE', #255, 12.70000000000000500, 0.7065046756567755500 ) ;
#173 = TOROIDAL_SURFACE ( 'NONE', #237, 0.05078866312346972500, 80.49999999999998600 ) ;
#174 = CC_DESIGN_APPROVAL ( #28, ( #11 ) ) ;
#175 = DIRECTION ( 'NONE',  ( -0.7606356092392212400, 0.0000000000000000000, 0.6491790738750584700 ) ) ;
#176 = APPROVAL_ROLE ( '' ) ;
#177 = CC_DESIGN_PERSON_AND_ORGANIZATION_ASSIGNMENT ( #273, #216, ( #150 ) ) ;
#178 = CARTESIAN_POINT ( 'NONE',  ( -1.500000000000000000, 0.0000000000000000000, 0.0000000000000000000 ) ) ;
#179 = AXIS2_PLACEMENT_3D ( 'NONE', #80, #221, #55 ) ;
#180 = CARTESIAN_POINT ( 'NONE',  ( -1.500000000000000000, 0.0000000000000000000, -12.44999999999999900 ) ) ;
#181 =( NAMED_UNIT ( * ) PLANE_ANGLE_UNIT ( ) SI_UNIT ( $, .RADIAN. ) );
#182 = EDGE_CURVE ( 'NONE', #61, #121, #64, .T. ) ;
#183 = FACE_OUTER_BOUND ( 'NONE', #27, .T. ) ;
#184 = VECTOR ( 'NONE', #34, 1000.000000000000000 ) ;
#185 = CARTESIAN_POINT ( 'NONE',  ( 1.500000000000000000, 0.0000000000000000000, 0.0000000000000000000 ) ) ;
#186 = AXIS2_PLACEMENT_3D ( 'NONE', #203, #161, #30 ) ;
#187 = DIRECTION ( 'NONE',  ( -1.000000000000000000, -0.0000000000000000000, -0.0000000000000000000 ) ) ;
#188 = CARTESIAN_POINT ( 'NONE',  ( -1.500000000000000000, 0.0000000000000000000, 0.0000000000000000000 ) ) ;
#189 = ORIENTED_EDGE ( 'NONE', *, *, #136, .F. ) ;
#190 = PERSON_AND_ORGANIZATION_ROLE ( 'creator' ) ;
#191 = AXIS2_PLACEMENT_3D ( 'NONE', #276, #138, #38 ) ;
#192 = DESIGN_CONTEXT ( 'detailed design', #212, 'design' ) ;
#193 = DIRECTION ( 'NONE',  ( 1.000000000000000000, 0.0000000000000000000, 0.0000000000000000000 ) ) ;
#194 = DIRECTION ( 'NONE',  ( 0.7071067811865474600, 0.0000000000000000000, -0.7071067811865474600 ) ) ;
#195 = CALENDAR_DATE ( 2015, 29, 5 ) ;
#196 = ORIENTED_EDGE ( 'NONE', *, *, #182, .F. ) ;
#197 = LOCAL_TIME ( 10, 22, 9.000000000000000000, #23 ) ;
#198 = AXIS2_PLACEMENT_3D ( 'NONE', #157, #227, #206 ) ;
#199 = ADVANCED_FACE ( 'NONE', ( #139 ), #126, .T. ) ;
#200 = CONICAL_SURFACE ( 'NONE', #251, 12.44999999999999900, 0.7853981633974482800 ) ;
#201 = DIRECTION ( 'NONE',  ( 1.000000000000000000, 0.0000000000000000000, 0.0000000000000000000 ) ) ;
#202 = DIRECTION ( 'NONE',  ( 0.0000000000000000000, 0.0000000000000000000, 1.000000000000000000 ) ) ;
#203 = CARTESIAN_POINT ( 'NONE',  ( -1.500000000000000000, 0.0000000000000000000, 0.0000000000000000000 ) ) ;
#204 = CARTESIAN_POINT ( 'NONE',  ( 0.5388300635474074800, 0.0000000000000000000, 12.45349243332362300 ) ) ;
#205 = PERSON_AND_ORGANIZATION ( #99, #98 ) ;
#206 = DIRECTION ( 'NONE',  ( 0.0000000000000000000, 0.0000000000000000000, 1.000000000000000000 ) ) ;
#207 = CIRCLE ( 'NONE', #147, 12.45349243332361100 ) ;
#208 = PERSON_AND_ORGANIZATION_ROLE ( 'design_supplier' ) ;
#209 = LOCAL_TIME ( 10, 22, 9.000000000000000000, #119 ) ;
#210 = AXIS2_PLACEMENT_3D ( 'NONE', #24, #69, #62 ) ;
#211 = ORIENTED_EDGE ( 'NONE', *, *, #68, .F. ) ;
#212 = APPLICATION_CONTEXT ( 'configuration controlled 3d designs of mechanical parts and assemblies' ) ;
#213 = ORIENTED_EDGE ( 'NONE', *, *, #241, .T. ) ;
#214 = AXIS2_PLACEMENT_3D ( 'NONE', #1, #193, #266 ) ;
#215 = DIRECTION ( 'NONE',  ( 0.0000000000000000000, 0.0000000000000000000, -1.000000000000000000 ) ) ;
#216 = PERSON_AND_ORGANIZATION_ROLE ( 'classification_officer' ) ;
#217 = COORDINATED_UNIVERSAL_TIME_OFFSET ( 5, 0, .BEHIND. ) ;
#218 = APPROVAL_PERSON_ORGANIZATION ( #298, #28, #228 ) ;
#219 = CARTESIAN_POINT ( 'NONE',  ( -1.500000000000000000, 0.0000000000000000000, 0.0000000000000000000 ) ) ;
#220 = EDGE_CURVE ( 'NONE', #259, #61, #144, .T. ) ;
#221 = DIRECTION ( 'NONE',  ( -1.000000000000000000, -0.0000000000000000000, -0.0000000000000000000 ) ) ;
#222 = AXIS2_PLACEMENT_3D ( 'NONE', #178, #240, #125 ) ;
#223 = APPLICATION_PROTOCOL_DEFINITION ( 'international standard', 'config_control_design', 1994, #109 ) ;
#224 = DIRECTION ( 'NONE',  ( 0.7071067811865474600, 8.659560562354932900E-017, 0.7071067811865474600 ) ) ;
#225 = EDGE_CURVE ( 'NONE', #289, #8, #247, .T. ) ;
#226 = ORIENTED_EDGE ( 'NONE', *, *, #182, .T. ) ;
#227 = DIRECTION ( 'NONE',  ( -1.000000000000000000, -0.0000000000000000000, -0.0000000000000000000 ) ) ;
#228 = APPROVAL_ROLE ( '' ) ;
#229 = DIRECTION ( 'NONE',  ( -1.000000000000000000, -0.0000000000000000000, -0.0000000000000000000 ) ) ;
#230 = EDGE_CURVE ( 'NONE', #121, #93, #45, .T. ) ;
#231 = CIRCLE ( 'NONE', #129, 12.44999999999999900 ) ;
#232 = AXIS2_PLACEMENT_3D ( 'NONE', #40, #281, #140 ) ;
#233 = DIRECTION ( 'NONE',  ( 0.0000000000000000000, 0.0000000000000000000, 1.000000000000000000 ) ) ;
#234 = CARTESIAN_POINT ( 'NONE',  ( -1.500000000000000000, 0.0000000000000000000, 12.70000000000000500 ) ) ;
#235 = PRODUCT ( '4285-E0W', '4285-E0W', '', ( #286 ) ) ;
#236 = DIRECTION ( 'NONE',  ( 1.000000000000000000, 0.0000000000000000000, 0.0000000000000000000 ) ) ;
#237 = AXIS2_PLACEMENT_3D ( 'NONE', #164, #187, #13 ) ;
#238 = CALENDAR_DATE ( 2015, 29, 5 ) ;
#239 = CARTESIAN_POINT ( 'NONE',  ( 0.5388300635474074800, 0.0000000000000000000, 0.0000000000000000000 ) ) ;
#240 = DIRECTION ( 'NONE',  ( 1.000000000000000000, 0.0000000000000000000, 0.0000000000000000000 ) ) ;
#241 = EDGE_CURVE ( 'NONE', #106, #289, #57, .T. ) ;
#242 = ORIENTED_EDGE ( 'NONE', *, *, #97, .F. ) ;
#243 = ORIENTED_EDGE ( 'NONE', *, *, #267, .F. ) ;
#244 = CIRCLE ( 'NONE', #210, 80.49999999999998600 ) ;
#245 = AXIS2_PLACEMENT_3D ( 'NONE', #188, #22, #169 ) ;
#246 = ORIENTED_EDGE ( 'NONE', *, *, #230, .T. ) ;
#247 = LINE ( 'NONE', #124, #100 ) ;
#248 = ADVANCED_FACE ( 'NONE', ( #67 ), #131, .F. ) ;
#249 = EDGE_CURVE ( 'NONE', #289, #121, #25, .T. ) ;
#250 = ORIENTED_EDGE ( 'NONE', *, *, #220, .F. ) ;
#251 = AXIS2_PLACEMENT_3D ( 'NONE', #219, #7, #167 ) ;
#252 = CARTESIAN_POINT ( 'NONE',  ( -1.500000000000000000, 1.539993349927796700E-015, 12.44999999999999900 ) ) ;
#253 = CARTESIAN_POINT ( 'NONE',  ( 0.0000000000000000000, 0.0000000000000000000, 0.0000000000000000000 ) ) ;
#254 = ORIENTED_EDGE ( 'NONE', *, *, #287, .F. ) ;
#255 = AXIS2_PLACEMENT_3D ( 'NONE', #48, #274, #297 ) ;
#256 = EDGE_LOOP ( 'NONE', ( #250, #117, #44 ) ) ;
#257 = DIRECTION ( 'NONE',  ( -1.000000000000000000, -0.0000000000000000000, -0.0000000000000000000 ) ) ;
#258 =( NAMED_UNIT ( * ) SI_UNIT ( $, .STERADIAN. ) SOLID_ANGLE_UNIT ( ) );
#259 = VERTEX_POINT ( 'NONE', #185 ) ;
#260 = CARTESIAN_POINT ( 'NONE',  ( -1.500000000000000000, 0.0000000000000000000, 0.0000000000000000000 ) ) ;
#261 = EDGE_LOOP ( 'NONE', ( #101, #254, #226, #92 ) ) ;
#262 = DIRECTION ( 'NONE',  ( -1.000000000000000000, -0.0000000000000000000, -0.0000000000000000000 ) ) ;
#263 = FACE_OUTER_BOUND ( 'NONE', #20, .T. ) ;
#264 = DATE_AND_TIME ( #269, #197 ) ;
#265 = PRODUCT_RELATED_PRODUCT_CATEGORY ( 'detail', '', ( #235 ) ) ;
#266 = DIRECTION ( 'NONE',  ( 0.0000000000000000000, 0.0000000000000000000, -1.000000000000000000 ) ) ;
#267 = EDGE_CURVE ( 'NONE', #93, #8, #81, .T. ) ;
#268 = PERSON_AND_ORGANIZATION_ROLE ( 'design_owner' ) ;
#269 = CALENDAR_DATE ( 2015, 29, 5 ) ;
#270 = SHAPE_DEFINITION_REPRESENTATION ( #65, #17 ) ;
#271 = APPROVAL_DATE_TIME ( #95, #50 ) ;
#272 = CARTESIAN_POINT ( 'NONE',  ( -1.249999999999994700, 0.0000000000000000000, 0.0000000000000000000 ) ) ;
#273 = PERSON_AND_ORGANIZATION ( #99, #98 ) ;
#274 = DIRECTION ( 'NONE',  ( -1.000000000000000000, -0.0000000000000000000, -0.0000000000000000000 ) ) ;
#275 = EDGE_CURVE ( 'NONE', #106, #61, #207, .T. ) ;
#276 = CARTESIAN_POINT ( 'NONE',  ( -78.99998397833192600, 0.0000000000000000000, 0.05078866312346972500 ) ) ;
#277 = CARTESIAN_POINT ( 'NONE',  ( -1.249999999999994700, 0.0000000000000000000, 12.70000000000000500 ) ) ;
#278 = ORIENTED_EDGE ( 'NONE', *, *, #230, .F. ) ;
#279 = FACE_OUTER_BOUND ( 'NONE', #152, .T. ) ;
#280 = PERSON_AND_ORGANIZATION ( #99, #98 ) ;
#281 = DIRECTION ( 'NONE',  ( -1.000000000000000000, -0.0000000000000000000, -0.0000000000000000000 ) ) ;
#282 = CARTESIAN_POINT ( 'NONE',  ( 0.2500000000000141000, 0.0000000000000000000, 12.70000000000000500 ) ) ;
#283 = ORIENTED_EDGE ( 'NONE', *, *, #275, .F. ) ;
#284 = EDGE_CURVE ( 'NONE', #121, #289, #133, .T. ) ;
#285 = VECTOR ( 'NONE', #175, 1000.000000000000100 ) ;
#286 = MECHANICAL_CONTEXT ( 'NONE', #109, 'mechanical' ) ;
#287 = EDGE_CURVE ( 'NONE', #61, #106, #90, .T. ) ;
#288 = CARTESIAN_POINT ( 'NONE',  ( -1.500000000000000000, 0.0000000000000000000, 0.0000000000000000000 ) ) ;
#289 = VERTEX_POINT ( 'NONE', #128 ) ;
#290 = FACE_OUTER_BOUND ( 'NONE', #261, .T. ) ;
#291 = PERSON_AND_ORGANIZATION ( #99, #98 ) ;
#292 = APPLICATION_PROTOCOL_DEFINITION ( 'international standard', 'config_control_design', 1994, #212 ) ;
#293 = CARTESIAN_POINT ( 'NONE',  ( 0.5388300635474074800, 1.525112964667555600E-015, -12.45349243332362300 ) ) ;
#294 = DIRECTION ( 'NONE',  ( 1.000000000000000000, 0.0000000000000000000, 0.0000000000000000000 ) ) ;
#295 = PERSON_AND_ORGANIZATION ( #99, #98 ) ;
#296 = EDGE_CURVE ( 'NONE', #43, #96, #231, .T. ) ;
#297 = DIRECTION ( 'NONE',  ( 0.0000000000000000000, 0.0000000000000000000, 1.000000000000000000 ) ) ;
#298 = PERSON_AND_ORGANIZATION ( #99, #98 ) ;
#299 = ORIENTED_EDGE ( 'NONE', *, *, #249, .T. ) ;
#300 = AXIS2_PLACEMENT_3D ( 'NONE', #73, #257, #87 ) ;
#301 = DIRECTION ( 'NONE',  ( 1.000000000000000000, 0.0000000000000000000, 0.0000000000000000000 ) ) ;
ENDSEC;
END-ISO-10303-21;
