ISO-10303-21;
HEADER;
FILE_DESCRIPTION (( 'STEP AP203' ),
    '1' );
FILE_NAME ('Web Model 48864_48864.step',
    '2017-05-09T19:00:06',
    ( '' ),
    ( '' ),
    'SwSTEP 2.0',
    'SolidWorks 2016',
    '' );
FILE_SCHEMA (( 'CONFIG_CONTROL_DESIGN' ));
ENDSEC;

DATA;
#1 = CARTESIAN_POINT ( 'NONE',  ( 25.00000000000000000, -25.00000000000000000, 25.00000000000000000 ) ) ;
#2 = CARTESIAN_POINT ( 'NONE',  ( -25.00000000000000000, -25.00000000000000000, 25.00000000000000000 ) ) ;
#3 = DIRECTION ( 'NONE',  ( -0.0000000000000000000, 0.0000000000000000000, 1.000000000000000000 ) ) ;
#4 = LINE ( 'NONE', #127, #303 ) ;
#5 =( LENGTH_UNIT ( ) NAMED_UNIT ( * ) SI_UNIT ( .MILLI., .METRE. ) );
#6 = PERSON_AND_ORGANIZATION ( #165, #35 ) ;
#7 = ORIENTED_EDGE ( 'NONE', *, *, #137, .T. ) ;
#8 = CC_DESIGN_APPROVAL ( #156, ( #116 ) ) ;
#9 = CC_DESIGN_SECURITY_CLASSIFICATION ( #13, ( #116 ) ) ;
#10 = FACE_OUTER_BOUND ( 'NONE', #201, .T. ) ;
#11 = ORIENTED_EDGE ( 'NONE', *, *, #148, .T. ) ;
#12 = PRODUCT_DEFINITION_SHAPE ( 'NONE', 'NONE',  #108 ) ;
#13 = SECURITY_CLASSIFICATION ( '', '', #57 ) ;
#14 = LINE ( 'NONE', #117, #244 ) ;
#15 = ORIENTED_EDGE ( 'NONE', *, *, #236, .F. ) ;
#16 = ORIENTED_EDGE ( 'NONE', *, *, #246, .F. ) ;
#17 = ADVANCED_FACE ( 'NONE', ( #215 ), #214, .F. ) ;
#18 = CARTESIAN_POINT ( 'NONE',  ( 0.0000000000000000000, 25.00000000000000000, 25.00000000000000000 ) ) ;
#19 = PLANE ( 'NONE',  #225 ) ;
#20 = EDGE_CURVE ( 'NONE', #309, #31, #205, .T. ) ;
#21 = DIRECTION ( 'NONE',  ( -0.0000000000000000000, 0.0000000000000000000, 1.000000000000000000 ) ) ;
#22 = DATE_AND_TIME ( #86, #123 ) ;
#23 = CARTESIAN_POINT ( 'NONE',  ( -25.00000000000000000, 0.0000000000000000000, 25.00000000000000000 ) ) ;
#24 = ORIENTED_EDGE ( 'NONE', *, *, #137, .F. ) ;
#25 = CC_DESIGN_DATE_AND_TIME_ASSIGNMENT ( #118, #304, ( #108 ) ) ;
#26 = DIRECTION ( 'NONE',  ( 1.000000000000000000, 0.0000000000000000000, 0.0000000000000000000 ) ) ;
#27 = FACE_OUTER_BOUND ( 'NONE', #147, .T. ) ;
#28 = VECTOR ( 'NONE', #44, 1000.000000000000000 ) ;
#29 = CARTESIAN_POINT ( 'NONE',  ( 0.0000000000000000000, -25.00000000000000000, 25.00000000000000000 ) ) ;
#30 = DIRECTION ( 'NONE',  ( 1.000000000000000000, 0.0000000000000000000, 0.0000000000000000000 ) ) ;
#31 = VERTEX_POINT ( 'NONE', #65 ) ;
#32 = APPROVAL ( #103, 'UNSPECIFIED' ) ;
#33 = PERSON_AND_ORGANIZATION_ROLE ( 'design_owner' ) ;
#34 = APPLICATION_CONTEXT ( 'configuration controlled 3d designs of mechanical parts and assemblies' ) ;
#35 = ORGANIZATION ( 'UNSPECIFIED', 'UNSPECIFIED', '' ) ;
#36 = LINE ( 'NONE', #78, #275 ) ;
#37 = ORIENTED_EDGE ( 'NONE', *, *, #206, .F. ) ;
#38 = VECTOR ( 'NONE', #240, 1000.000000000000100 ) ;
#39 = FACE_OUTER_BOUND ( 'NONE', #227, .T. ) ;
#40 = ADVANCED_FACE ( 'NONE', ( #39 ), #219, .T. ) ;
#41 = CC_DESIGN_DATE_AND_TIME_ASSIGNMENT ( #299, #306, ( #13 ) ) ;
#42 = APPROVAL_DATE_TIME ( #255, #166 ) ;
#43 = FACE_OUTER_BOUND ( 'NONE', #154, .T. ) ;
#44 = DIRECTION ( 'NONE',  ( 0.0000000000000000000, 1.000000000000000000, -0.0000000000000000000 ) ) ;
#45 = ORIENTED_EDGE ( 'NONE', *, *, #76, .T. ) ;
#46 = CARTESIAN_POINT ( 'NONE',  ( 25.00000000000000000, -25.00000000000000000, 25.00000000000000000 ) ) ;
#47 = DIRECTION ( 'NONE',  ( -0.7071067811865474600, 0.7071067811865474600, 0.0000000000000000000 ) ) ;
#48 = CARTESIAN_POINT ( 'NONE',  ( 25.00000000000000000, 25.00000000000000000, 25.00000000000000000 ) ) ;
#49 = PLANE ( 'NONE',  #239 ) ;
#50 = DIRECTION ( 'NONE',  ( -0.0000000000000000000, -0.0000000000000000000, -1.000000000000000000 ) ) ;
#51 = LOCAL_TIME ( 15, 0, 6.000000000000000000, #241 ) ;
#52 = FACE_OUTER_BOUND ( 'NONE', #286, .T. ) ;
#53 = MANIFOLD_SOLID_BREP ( 'Boss-Extrude3', #191 ) ;
#54 =( NAMED_UNIT ( * ) SI_UNIT ( $, .STERADIAN. ) SOLID_ANGLE_UNIT ( ) );
#55 = VERTEX_POINT ( 'NONE', #197 ) ;
#56 = ORIENTED_EDGE ( 'NONE', *, *, #222, .F. ) ;
#57 = SECURITY_CLASSIFICATION_LEVEL ( 'unclassified' ) ;
#58 = EDGE_CURVE ( 'NONE', #257, #95, #196, .T. ) ;
#59 = PERSON_AND_ORGANIZATION ( #165, #35 ) ;
#60 = CARTESIAN_POINT ( 'NONE',  ( 0.0000000000000000000, 0.0000000000000000000, 25.00000000000000000 ) ) ;
#61 = EDGE_CURVE ( 'NONE', #311, #212, #138, .T. ) ;
#62 = COORDINATED_UNIVERSAL_TIME_OFFSET ( 5, 0, .BEHIND. ) ;
#63 = VECTOR ( 'NONE', #272, 1000.000000000000000 ) ;
#64 = ADVANCED_FACE ( 'NONE', ( #10 ), #143, .T. ) ;
#65 = CARTESIAN_POINT ( 'NONE',  ( 25.00000000000000000, -25.00000000000000000, 25.00000000000000000 ) ) ;
#66 = DIRECTION ( 'NONE',  ( -0.0000000000000000000, -0.0000000000000000000, -1.000000000000000000 ) ) ;
#67 = VECTOR ( 'NONE', #273, 1000.000000000000000 ) ;
#68 = VECTOR ( 'NONE', #221, 1000.000000000000100 ) ;
#69 = DIRECTION ( 'NONE',  ( 0.7071067811865474600, -0.7071067811865474600, 0.0000000000000000000 ) ) ;
#70 = DIRECTION ( 'NONE',  ( -0.0000000000000000000, 0.0000000000000000000, 1.000000000000000000 ) ) ;
#71 = CARTESIAN_POINT ( 'NONE',  ( -0.0000000000000000000, 0.0000000000000000000, -25.00000000000000000 ) ) ;
#72 = AXIS2_PLACEMENT_3D ( 'NONE', #251, #250, #184 ) ;
#73 = VECTOR ( 'NONE', #292, 1000.000000000000000 ) ;
#74 = DIRECTION ( 'NONE',  ( 0.0000000000000000000, 0.0000000000000000000, 1.000000000000000000 ) ) ;
#75 = ORIENTED_EDGE ( 'NONE', *, *, #188, .T. ) ;
#76 = EDGE_CURVE ( 'NONE', #254, #95, #283, .T. ) ;
#77 = CARTESIAN_POINT ( 'NONE',  ( -0.0000000000000000000, 0.0000000000000000000, -25.00000000000000000 ) ) ;
#78 = CARTESIAN_POINT ( 'NONE',  ( -25.00000000000000000, 0.0000000000000000000, -25.00000000000000000 ) ) ;
#79 = FACE_OUTER_BOUND ( 'NONE', #119, .T. ) ;
#80 = ORIENTED_EDGE ( 'NONE', *, *, #261, .T. ) ;
#81 = ORIENTED_EDGE ( 'NONE', *, *, #20, .F. ) ;
#82 = APPROVAL_STATUS ( 'not_yet_approved' ) ;
#83 = VECTOR ( 'NONE', #66, 1000.000000000000000 ) ;
#84 = ADVANCED_FACE ( 'NONE', ( #52 ), #266, .F. ) ;
#85 = ADVANCED_BREP_SHAPE_REPRESENTATION ( 'Web Model 48864_48864', ( #145, #53, #72 ), #135 ) ;
#86 = CALENDAR_DATE ( 2017, 9, 5 ) ;
#87 = VECTOR ( 'NONE', #192, 1000.000000000000000 ) ;
#88 = AXIS2_PLACEMENT_3D ( 'NONE', #181, #160, #179 ) ;
#89 = AXIS2_PLACEMENT_3D ( 'NONE', #144, #70, #93 ) ;
#90 = PRODUCT ( 'Web Model 48864_48864', 'Web Model 48864_48864', '', ( #229 ) ) ;
#91 = CARTESIAN_POINT ( 'NONE',  ( 0.0000000000000000000, -25.00000000000000000, 25.00000000000000000 ) ) ;
#92 = CALENDAR_DATE ( 2017, 9, 5 ) ;
#93 = DIRECTION ( 'NONE',  ( 1.000000000000000000, 0.0000000000000000000, 0.0000000000000000000 ) ) ;
#94 = LINE ( 'NONE', #1, #183 ) ;
#95 = VERTEX_POINT ( 'NONE', #171 ) ;
#96 = CARTESIAN_POINT ( 'NONE',  ( 0.0000000000000000000, 25.00000000000000000, 25.00000000000000000 ) ) ;
#97 = PERSON_AND_ORGANIZATION ( #165, #35 ) ;
#98 = DIRECTION ( 'NONE',  ( 0.7071067811865474600, -0.7071067811865474600, 0.0000000000000000000 ) ) ;
#99 = ORIENTED_EDGE ( 'NONE', *, *, #120, .T. ) ;
#100 = CARTESIAN_POINT ( 'NONE',  ( 0.0000000000000000000, 0.0000000000000000000, 25.00000000000000000 ) ) ;
#101 = DIRECTION ( 'NONE',  ( -0.0000000000000000000, -0.0000000000000000000, -1.000000000000000000 ) ) ;
#102 = PERSON_AND_ORGANIZATION ( #165, #35 ) ;
#103 = APPROVAL_STATUS ( 'not_yet_approved' ) ;
#104 = EDGE_CURVE ( 'NONE', #55, #208, #169, .T. ) ;
#105 = ORIENTED_EDGE ( 'NONE', *, *, #217, .F. ) ;
#106 = ORIENTED_EDGE ( 'NONE', *, *, #222, .T. ) ;
#107 = PERSON_AND_ORGANIZATION_ROLE ( 'creator' ) ;
#108 = PRODUCT_DEFINITION ( 'UNKNOWN', '', #116, #238 ) ;
#109 = AXIS2_PLACEMENT_3D ( 'NONE', #91, #168, #264 ) ;
#110 = VERTEX_POINT ( 'NONE', #295 ) ;
#111 = ORIENTED_EDGE ( 'NONE', *, *, #206, .T. ) ;
#112 = LINE ( 'NONE', #18, #87 ) ;
#113 = ORIENTED_EDGE ( 'NONE', *, *, #58, .T. ) ;
#114 = ORIENTED_EDGE ( 'NONE', *, *, #120, .F. ) ;
#115 = CARTESIAN_POINT ( 'NONE',  ( 25.00000000000000000, 0.0000000000000000000, -25.00000000000000000 ) ) ;
#116 = PRODUCT_DEFINITION_FORMATION_WITH_SPECIFIED_SOURCE ( 'ANY', '', #90, .NOT_KNOWN. ) ;
#117 = CARTESIAN_POINT ( 'NONE',  ( -25.00000000000000000, 25.00000000000000000, 25.00000000000000000 ) ) ;
#118 = DATE_AND_TIME ( #307, #51 ) ;
#119 = EDGE_LOOP ( 'NONE', ( #270, #308, #11, #170 ) ) ;
#120 = EDGE_CURVE ( 'NONE', #314, #55, #211, .T. ) ;
#121 = CARTESIAN_POINT ( 'NONE',  ( 0.0000000000000000000, -25.00000000000000000, -25.00000000000000000 ) ) ;
#122 = DIRECTION ( 'NONE',  ( 0.0000000000000000000, 1.000000000000000000, 0.0000000000000000000 ) ) ;
#123 = LOCAL_TIME ( 15, 0, 6.000000000000000000, #62 ) ;
#124 = CARTESIAN_POINT ( 'NONE',  ( -25.00000000000000000, -25.00000000000000000, -25.00000000000000000 ) ) ;
#125 = ORIENTED_EDGE ( 'NONE', *, *, #199, .T. ) ;
#126 = CARTESIAN_POINT ( 'NONE',  ( 25.00000000000000000, 25.00000000000000000, -25.00000000000000000 ) ) ;
#127 = CARTESIAN_POINT ( 'NONE',  ( 25.00000000000000000, 0.0000000000000000000, 25.00000000000000000 ) ) ;
#128 = CARTESIAN_POINT ( 'NONE',  ( -25.00000000000000000, 25.00000000000000000, 25.00000000000000000 ) ) ;
#129 = LINE ( 'NONE', #77, #162 ) ;
#130 = APPLICATION_CONTEXT ( 'configuration controlled 3d designs of mechanical parts and assemblies' ) ;
#131 = PERSON_AND_ORGANIZATION_ROLE ( 'design_supplier' ) ;
#132 = EDGE_CURVE ( 'NONE', #309, #110, #14, .T. ) ;
#133 = ORIENTED_EDGE ( 'NONE', *, *, #148, .F. ) ;
#134 = CLOSED_SHELL ( 'NONE', ( #195, #84, #243, #40, #163 ) ) ;
#135 =( GEOMETRIC_REPRESENTATION_CONTEXT ( 3 ) GLOBAL_UNCERTAINTY_ASSIGNED_CONTEXT ( ( #249 ) ) GLOBAL_UNIT_ASSIGNED_CONTEXT ( ( #5, #158, #54 ) ) REPRESENTATION_CONTEXT ( 'NONE', 'WORKASPACE' ) );
#136 = LINE ( 'NONE', #203, #204 ) ;
#137 = EDGE_CURVE ( 'NONE', #208, #95, #294, .T. ) ;
#138 = LINE ( 'NONE', #115, #73 ) ;
#139 = PRODUCT_RELATED_PRODUCT_CATEGORY ( 'detail', '', ( #90 ) ) ;
#140 = ORIENTED_EDGE ( 'NONE', *, *, #230, .F. ) ;
#141 = ORIENTED_EDGE ( 'NONE', *, *, #61, .F. ) ;
#142 = CC_DESIGN_APPROVAL ( #166, ( #108 ) ) ;
#143 = PLANE ( 'NONE',  #89 ) ;
#144 = CARTESIAN_POINT ( 'NONE',  ( 0.0000000000000000000, 0.0000000000000000000, 25.00000000000000000 ) ) ;
#145 = MANIFOLD_SOLID_BREP ( 'Boss-Extrude2', #134 ) ;
#146 = CALENDAR_DATE ( 2017, 9, 5 ) ;
#147 = EDGE_LOOP ( 'NONE', ( #186, #140, #105, #318 ) ) ;
#148 = EDGE_CURVE ( 'NONE', #309, #291, #112, .T. ) ;
#149 = DIRECTION ( 'NONE',  ( 0.0000000000000000000, 1.000000000000000000, -0.0000000000000000000 ) ) ;
#150 = CARTESIAN_POINT ( 'NONE',  ( 0.0000000000000000000, 0.0000000000000000000, -25.00000000000000000 ) ) ;
#151 = CC_DESIGN_APPROVAL ( #32, ( #13 ) ) ;
#152 = FACE_OUTER_BOUND ( 'NONE', #185, .T. ) ;
#153 = PLANE ( 'NONE',  #161 ) ;
#154 = EDGE_LOOP ( 'NONE', ( #37, #216, #99, #174 ) ) ;
#155 = PLANE ( 'NONE',  #274 ) ;
#156 = APPROVAL ( #82, 'UNSPECIFIED' ) ;
#157 = PERSON_AND_ORGANIZATION ( #165, #35 ) ;
#158 =( NAMED_UNIT ( * ) PLANE_ANGLE_UNIT ( ) SI_UNIT ( $, .RADIAN. ) );
#159 = EDGE_LOOP ( 'NONE', ( #111, #113, #233 ) ) ;
#160 = DIRECTION ( 'NONE',  ( -1.000000000000000000, 0.0000000000000000000, 0.0000000000000000000 ) ) ;
#161 = AXIS2_PLACEMENT_3D ( 'NONE', #96, #122, #271 ) ;
#162 = VECTOR ( 'NONE', #98, 1000.000000000000100 ) ;
#163 = ADVANCED_FACE ( 'NONE', ( #269 ), #19, .F. ) ;
#164 = ORIENTED_EDGE ( 'NONE', *, *, #58, .F. ) ;
#165 = PERSON ( 'UNSPECIFIED', 'UNSPECIFIED', 'UNSPECIFIED', ('UNSPECIFIED'), ('UNSPECIFIED'), ('UNSPECIFIED') ) ;
#166 = APPROVAL ( #228, 'UNSPECIFIED' ) ;
#167 = ADVANCED_FACE ( 'NONE', ( #79 ), #153, .T. ) ;
#168 = DIRECTION ( 'NONE',  ( 0.0000000000000000000, 1.000000000000000000, 0.0000000000000000000 ) ) ;
#169 = LINE ( 'NONE', #315, #38 ) ;
#170 = ORIENTED_EDGE ( 'NONE', *, *, #230, .T. ) ;
#171 = CARTESIAN_POINT ( 'NONE',  ( 25.00000000000000000, -25.00000000000000000, -25.00000000000000000 ) ) ;
#172 = CARTESIAN_POINT ( 'NONE',  ( -25.00000000000000000, 25.00000000000000000, 25.00000000000000000 ) ) ;
#173 = SHAPE_DEFINITION_REPRESENTATION ( #12, #85 ) ;
#174 = ORIENTED_EDGE ( 'NONE', *, *, #246, .T. ) ;
#175 = DIRECTION ( 'NONE',  ( -1.000000000000000000, 0.0000000000000000000, 0.0000000000000000000 ) ) ;
#176 = DIRECTION ( 'NONE',  ( -0.0000000000000000000, -0.0000000000000000000, -1.000000000000000000 ) ) ;
#177 = CALENDAR_DATE ( 2017, 9, 5 ) ;
#178 = LINE ( 'NONE', #48, #234 ) ;
#179 = DIRECTION ( 'NONE',  ( 0.0000000000000000000, 0.0000000000000000000, 1.000000000000000000 ) ) ;
#180 = APPROVAL_ROLE ( '' ) ;
#181 = CARTESIAN_POINT ( 'NONE',  ( 25.00000000000000000, 0.0000000000000000000, 25.00000000000000000 ) ) ;
#182 = AXIS2_PLACEMENT_3D ( 'NONE', #293, #21, #289 ) ;
#183 = VECTOR ( 'NONE', #101, 1000.000000000000000 ) ;
#184 = DIRECTION ( 'NONE',  ( 1.000000000000000000, 0.0000000000000000000, 0.0000000000000000000 ) ) ;
#185 = EDGE_LOOP ( 'NONE', ( #237, #80, #141 ) ) ;
#186 = ORIENTED_EDGE ( 'NONE', *, *, #61, .T. ) ;
#187 = CC_DESIGN_PERSON_AND_ORGANIZATION_ASSIGNMENT ( #102, #131, ( #116 ) ) ;
#188 = EDGE_CURVE ( 'NONE', #314, #254, #136, .T. ) ;
#189 = DATE_AND_TIME ( #146, #207 ) ;
#190 = EDGE_LOOP ( 'NONE', ( #125, #15, #81, #260 ) ) ;
#191 = CLOSED_SHELL ( 'NONE', ( #17, #316, #167, #64, #259 ) ) ;
#192 = DIRECTION ( 'NONE',  ( 1.000000000000000000, 0.0000000000000000000, 0.0000000000000000000 ) ) ;
#193 = CARTESIAN_POINT ( 'NONE',  ( 0.0000000000000000000, 0.0000000000000000000, -25.00000000000000000 ) ) ;
#194 = PERSON_AND_ORGANIZATION ( #165, #35 ) ;
#195 = ADVANCED_FACE ( 'NONE', ( #43 ), #49, .T. ) ;
#196 = LINE ( 'NONE', #71, #256 ) ;
#197 = CARTESIAN_POINT ( 'NONE',  ( -25.00000000000000000, 25.00000000000000000, 25.00000000000000000 ) ) ;
#198 = DIRECTION ( 'NONE',  ( -0.0000000000000000000, -0.0000000000000000000, -1.000000000000000000 ) ) ;
#199 = EDGE_CURVE ( 'NONE', #110, #311, #129, .T. ) ;
#200 = ORIENTED_EDGE ( 'NONE', *, *, #104, .F. ) ;
#201 = EDGE_LOOP ( 'NONE', ( #305, #281, #133 ) ) ;
#202 = CARTESIAN_POINT ( 'NONE',  ( 25.00000000000000000, 25.00000000000000000, 25.00000000000000000 ) ) ;
#203 = CARTESIAN_POINT ( 'NONE',  ( -25.00000000000000000, -25.00000000000000000, 25.00000000000000000 ) ) ;
#204 = VECTOR ( 'NONE', #176, 1000.000000000000000 ) ;
#205 = LINE ( 'NONE', #268, #68 ) ;
#206 = EDGE_CURVE ( 'NONE', #254, #257, #36, .T. ) ;
#207 = LOCAL_TIME ( 15, 0, 6.000000000000000000, #213 ) ;
#208 = VERTEX_POINT ( 'NONE', #300 ) ;
#209 = APPROVAL_ROLE ( '' ) ;
#210 = LINE ( 'NONE', #276, #262 ) ;
#211 = LINE ( 'NONE', #23, #28 ) ;
#212 = VERTEX_POINT ( 'NONE', #126 ) ;
#213 = COORDINATED_UNIVERSAL_TIME_OFFSET ( 5, 0, .BEHIND. ) ;
#214 = PLANE ( 'NONE',  #313 ) ;
#215 = FACE_OUTER_BOUND ( 'NONE', #190, .T. ) ;
#216 = ORIENTED_EDGE ( 'NONE', *, *, #188, .F. ) ;
#217 = EDGE_CURVE ( 'NONE', #31, #291, #4, .T. ) ;
#218 = EDGE_LOOP ( 'NONE', ( #164, #16, #277, #7 ) ) ;
#219 = PLANE ( 'NONE',  #182 ) ;
#220 = CC_DESIGN_PERSON_AND_ORGANIZATION_ASSIGNMENT ( #59, #278, ( #116 ) ) ;
#221 = DIRECTION ( 'NONE',  ( 0.7071067811865474600, -0.7071067811865474600, 0.0000000000000000000 ) ) ;
#222 = EDGE_CURVE ( 'NONE', #314, #208, #232, .T. ) ;
#223 = PLANE ( 'NONE',  #88 ) ;
#224 = CARTESIAN_POINT ( 'NONE',  ( -25.00000000000000000, 25.00000000000000000, -25.00000000000000000 ) ) ;
#225 = AXIS2_PLACEMENT_3D ( 'NONE', #193, #3, #26 ) ;
#226 = APPROVAL_DATE_TIME ( #22, #156 ) ;
#227 = EDGE_LOOP ( 'NONE', ( #114, #106, #200 ) ) ;
#228 = APPROVAL_STATUS ( 'not_yet_approved' ) ;
#229 = MECHANICAL_CONTEXT ( 'NONE', #34, 'mechanical' ) ;
#230 = EDGE_CURVE ( 'NONE', #291, #212, #178, .T. ) ;
#231 = APPROVAL_PERSON_ORGANIZATION ( #321, #32, #253 ) ;
#232 = LINE ( 'NONE', #29, #67 ) ;
#233 = ORIENTED_EDGE ( 'NONE', *, *, #76, .F. ) ;
#234 = VECTOR ( 'NONE', #50, 1000.000000000000000 ) ;
#235 = CC_DESIGN_PERSON_AND_ORGANIZATION_ASSIGNMENT ( #312, #282, ( #13 ) ) ;
#236 = EDGE_CURVE ( 'NONE', #31, #311, #94, .T. ) ;
#237 = ORIENTED_EDGE ( 'NONE', *, *, #199, .F. ) ;
#238 = DESIGN_CONTEXT ( 'detailed design', #130, 'design' ) ;
#239 = AXIS2_PLACEMENT_3D ( 'NONE', #248, #175, #74 ) ;
#240 = DIRECTION ( 'NONE',  ( 0.7071067811865474600, -0.7071067811865474600, 0.0000000000000000000 ) ) ;
#241 = COORDINATED_UNIVERSAL_TIME_OFFSET ( 5, 0, .BEHIND. ) ;
#242 = LINE ( 'NONE', #128, #63 ) ;
#243 = ADVANCED_FACE ( 'NONE', ( #263 ), #155, .T. ) ;
#244 = VECTOR ( 'NONE', #198, 1000.000000000000000 ) ;
#245 = CARTESIAN_POINT ( 'NONE',  ( 25.00000000000000000, -25.00000000000000000, -25.00000000000000000 ) ) ;
#246 = EDGE_CURVE ( 'NONE', #55, #257, #242, .T. ) ;
#247 = DIRECTION ( 'NONE',  ( 0.0000000000000000000, 1.000000000000000000, -0.0000000000000000000 ) ) ;
#248 = CARTESIAN_POINT ( 'NONE',  ( -25.00000000000000000, 0.0000000000000000000, 25.00000000000000000 ) ) ;
#249 = UNCERTAINTY_MEASURE_WITH_UNIT (LENGTH_MEASURE( 1.000000000000000100E-005 ), #5, 'distance_accuracy_value', 'NONE');
#250 = DIRECTION ( 'NONE',  ( 0.0000000000000000000, 0.0000000000000000000, 1.000000000000000000 ) ) ;
#251 = CARTESIAN_POINT ( 'NONE',  ( 0.0000000000000000000, 0.0000000000000000000, 0.0000000000000000000 ) ) ;
#252 = LOCAL_TIME ( 15, 0, 6.000000000000000000, #279 ) ;
#253 = APPROVAL_ROLE ( '' ) ;
#254 = VERTEX_POINT ( 'NONE', #124 ) ;
#255 = DATE_AND_TIME ( #177, #288 ) ;
#256 = VECTOR ( 'NONE', #69, 1000.000000000000100 ) ;
#257 = VERTEX_POINT ( 'NONE', #224 ) ;
#258 = DIRECTION ( 'NONE',  ( 0.7071067811865475700, 0.7071067811865475700, -0.0000000000000000000 ) ) ;
#259 = ADVANCED_FACE ( 'NONE', ( #152 ), #320, .F. ) ;
#260 = ORIENTED_EDGE ( 'NONE', *, *, #132, .T. ) ;
#261 = EDGE_CURVE ( 'NONE', #110, #212, #210, .T. ) ;
#262 = VECTOR ( 'NONE', #301, 1000.000000000000000 ) ;
#263 = FACE_OUTER_BOUND ( 'NONE', #218, .T. ) ;
#264 = DIRECTION ( 'NONE',  ( 0.0000000000000000000, -0.0000000000000000000, 1.000000000000000000 ) ) ;
#265 = CC_DESIGN_PERSON_AND_ORGANIZATION_ASSIGNMENT ( #97, #33, ( #90 ) ) ;
#266 = PLANE ( 'NONE',  #109 ) ;
#267 = APPROVAL_PERSON_ORGANIZATION ( #157, #156, #180 ) ;
#268 = CARTESIAN_POINT ( 'NONE',  ( 0.0000000000000000000, 0.0000000000000000000, 25.00000000000000000 ) ) ;
#269 = FACE_OUTER_BOUND ( 'NONE', #159, .T. ) ;
#270 = ORIENTED_EDGE ( 'NONE', *, *, #261, .F. ) ;
#271 = DIRECTION ( 'NONE',  ( 0.0000000000000000000, -0.0000000000000000000, 1.000000000000000000 ) ) ;
#272 = DIRECTION ( 'NONE',  ( -0.0000000000000000000, -0.0000000000000000000, -1.000000000000000000 ) ) ;
#273 = DIRECTION ( 'NONE',  ( 1.000000000000000000, 0.0000000000000000000, 0.0000000000000000000 ) ) ;
#274 = AXIS2_PLACEMENT_3D ( 'NONE', #100, #296, #47 ) ;
#275 = VECTOR ( 'NONE', #149, 1000.000000000000000 ) ;
#276 = CARTESIAN_POINT ( 'NONE',  ( -0.0000000000000000000, 25.00000000000000000, -25.00000000000000000 ) ) ;
#277 = ORIENTED_EDGE ( 'NONE', *, *, #104, .T. ) ;
#278 = PERSON_AND_ORGANIZATION_ROLE ( 'creator' ) ;
#279 = COORDINATED_UNIVERSAL_TIME_OFFSET ( 5, 0, .BEHIND. ) ;
#280 = APPLICATION_PROTOCOL_DEFINITION ( 'international standard', 'config_control_design', 1994, #130 ) ;
#281 = ORIENTED_EDGE ( 'NONE', *, *, #217, .T. ) ;
#282 = PERSON_AND_ORGANIZATION_ROLE ( 'classification_officer' ) ;
#283 = LINE ( 'NONE', #121, #290 ) ;
#284 = AXIS2_PLACEMENT_3D ( 'NONE', #150, #297, #30 ) ;
#285 = COORDINATED_UNIVERSAL_TIME_OFFSET ( 5, 0, .BEHIND. ) ;
#286 = EDGE_LOOP ( 'NONE', ( #45, #24, #56, #75 ) ) ;
#287 = DIRECTION ( 'NONE',  ( -0.7071067811865474600, 0.7071067811865474600, 0.0000000000000000000 ) ) ;
#288 = LOCAL_TIME ( 15, 0, 6.000000000000000000, #285 ) ;
#289 = DIRECTION ( 'NONE',  ( 1.000000000000000000, 0.0000000000000000000, 0.0000000000000000000 ) ) ;
#290 = VECTOR ( 'NONE', #319, 1000.000000000000000 ) ;
#291 = VERTEX_POINT ( 'NONE', #202 ) ;
#292 = DIRECTION ( 'NONE',  ( 0.0000000000000000000, 1.000000000000000000, -0.0000000000000000000 ) ) ;
#293 = CARTESIAN_POINT ( 'NONE',  ( 0.0000000000000000000, 0.0000000000000000000, 25.00000000000000000 ) ) ;
#294 = LINE ( 'NONE', #46, #83 ) ;
#295 = CARTESIAN_POINT ( 'NONE',  ( -25.00000000000000000, 25.00000000000000000, -25.00000000000000000 ) ) ;
#296 = DIRECTION ( 'NONE',  ( 0.7071067811865475700, 0.7071067811865475700, -0.0000000000000000000 ) ) ;
#297 = DIRECTION ( 'NONE',  ( -0.0000000000000000000, 0.0000000000000000000, 1.000000000000000000 ) ) ;
#298 = CC_DESIGN_PERSON_AND_ORGANIZATION_ASSIGNMENT ( #194, #107, ( #108 ) ) ;
#299 = DATE_AND_TIME ( #92, #252 ) ;
#300 = CARTESIAN_POINT ( 'NONE',  ( 25.00000000000000000, -25.00000000000000000, 25.00000000000000000 ) ) ;
#301 = DIRECTION ( 'NONE',  ( 1.000000000000000000, 0.0000000000000000000, 0.0000000000000000000 ) ) ;
#302 = APPLICATION_PROTOCOL_DEFINITION ( 'international standard', 'config_control_design', 1994, #34 ) ;
#303 = VECTOR ( 'NONE', #247, 1000.000000000000000 ) ;
#304 = DATE_TIME_ROLE ( 'creation_date' ) ;
#305 = ORIENTED_EDGE ( 'NONE', *, *, #20, .T. ) ;
#306 = DATE_TIME_ROLE ( 'classification_date' ) ;
#307 = CALENDAR_DATE ( 2017, 9, 5 ) ;
#308 = ORIENTED_EDGE ( 'NONE', *, *, #132, .F. ) ;
#309 = VERTEX_POINT ( 'NONE', #172 ) ;
#310 = APPROVAL_PERSON_ORGANIZATION ( #6, #166, #209 ) ;
#311 = VERTEX_POINT ( 'NONE', #245 ) ;
#312 = PERSON_AND_ORGANIZATION ( #165, #35 ) ;
#313 = AXIS2_PLACEMENT_3D ( 'NONE', #60, #258, #287 ) ;
#314 = VERTEX_POINT ( 'NONE', #2 ) ;
#315 = CARTESIAN_POINT ( 'NONE',  ( 0.0000000000000000000, 0.0000000000000000000, 25.00000000000000000 ) ) ;
#316 = ADVANCED_FACE ( 'NONE', ( #27 ), #223, .F. ) ;
#317 = APPROVAL_DATE_TIME ( #189, #32 ) ;
#318 = ORIENTED_EDGE ( 'NONE', *, *, #236, .T. ) ;
#319 = DIRECTION ( 'NONE',  ( 1.000000000000000000, 0.0000000000000000000, 0.0000000000000000000 ) ) ;
#320 = PLANE ( 'NONE',  #284 ) ;
#321 = PERSON_AND_ORGANIZATION ( #165, #35 ) ;
ENDSEC;
END-ISO-10303-21;
