ISO-10303-21;
HEADER;
FILE_DESCRIPTION (( 'STEP AP203' ),
    '1' );
FILE_NAME ('36935_36959.step',
    '2017-08-23T20:36:14',
    ( '' ),
    ( '' ),
    'SwSTEP 2.0',
    'SolidWorks 2016',
    '' );
FILE_SCHEMA (( 'CONFIG_CONTROL_DESIGN' ));
ENDSEC;

DATA;
#1 = CIRCLE ( 'NONE', #149, 37.49999999999999300 ) ;
#2 = CC_DESIGN_DATE_AND_TIME_ASSIGNMENT ( #31, #74, ( #157 ) ) ;
#3 = PLANE ( 'NONE',  #106 ) ;
#4 = VECTOR ( 'NONE', #141, 1000.000000000000000 ) ;
#5 = ADVANCED_FACE ( 'NONE', ( #147 ), #3, .T. ) ;
#6 = APPLICATION_PROTOCOL_DEFINITION ( 'international standard', 'config_control_design', 1994, #85 ) ;
#7 = APPROVAL_ROLE ( '' ) ;
#8 = PERSON_AND_ORGANIZATION_ROLE ( 'creator' ) ;
#9 = CARTESIAN_POINT ( 'NONE',  ( 0.0000000000000000000, 0.0000000000000000000, -1.500000000000000000 ) ) ;
#10 =( NAMED_UNIT ( * ) PLANE_ANGLE_UNIT ( ) SI_UNIT ( $, .RADIAN. ) );
#11 = ADVANCED_BREP_SHAPE_REPRESENTATION ( '36935_36959', ( #163, #34 ), #148 ) ;
#12 = COORDINATED_UNIVERSAL_TIME_OFFSET ( 5, 0, .BEHIND. ) ;
#13 = APPROVAL ( #134, 'UNSPECIFIED' ) ;
#14 = CC_DESIGN_PERSON_AND_ORGANIZATION_ASSIGNMENT ( #108, #49, ( #157 ) ) ;
#15 = ORIENTED_EDGE ( 'NONE', *, *, #84, .T. ) ;
#16 = VERTEX_POINT ( 'NONE', #138 ) ;
#17 = COORDINATED_UNIVERSAL_TIME_OFFSET ( 5, 0, .BEHIND. ) ;
#18 = ORGANIZATION ( 'UNSPECIFIED', 'UNSPECIFIED', '' ) ;
#19 = CARTESIAN_POINT ( 'NONE',  ( 0.0000000000000000000, 0.0000000000000000000, 1.500000000000000000 ) ) ;
#20 = AXIS2_PLACEMENT_3D ( 'NONE', #19, #27, #153 ) ;
#21 = CARTESIAN_POINT ( 'NONE',  ( -37.49999999999999300, 0.0000000000000000000, 1.500000000000000000 ) ) ;
#22 = APPROVAL ( #159, 'UNSPECIFIED' ) ;
#23 = ORIENTED_EDGE ( 'NONE', *, *, #120, .T. ) ;
#24 = CC_DESIGN_APPROVAL ( #13, ( #157 ) ) ;
#25 = DATE_AND_TIME ( #39, #174 ) ;
#26 = EDGE_CURVE ( 'NONE', #32, #111, #175, .T. ) ;
#27 = DIRECTION ( 'NONE',  ( -0.0000000000000000000, -0.0000000000000000000, -1.000000000000000000 ) ) ;
#28 = ADVANCED_FACE ( 'NONE', ( #97 ), #145, .T. ) ;
#29 = EDGE_CURVE ( 'NONE', #111, #32, #1, .T. ) ;
#30 = ADVANCED_FACE ( 'NONE', ( #152 ), #35, .F. ) ;
#31 = DATE_AND_TIME ( #168, #151 ) ;
#32 = VERTEX_POINT ( 'NONE', #129 ) ;
#33 = APPROVAL_STATUS ( 'not_yet_approved' ) ;
#34 = AXIS2_PLACEMENT_3D ( 'NONE', #158, #70, #69 ) ;
#35 = PLANE ( 'NONE',  #45 ) ;
#36 = APPROVAL_PERSON_ORGANIZATION ( #118, #50, #71 ) ;
#37 = AXIS2_PLACEMENT_3D ( 'NONE', #173, #46, #155 ) ;
#38 = LOCAL_TIME ( 16, 36, 14.00000000000000000, #63 ) ;
#39 = CALENDAR_DATE ( 2017, 23, 8 ) ;
#40 = ORIENTED_EDGE ( 'NONE', *, *, #75, .T. ) ;
#41 = AXIS2_PLACEMENT_3D ( 'NONE', #140, #89, #57 ) ;
#42 = CARTESIAN_POINT ( 'NONE',  ( 0.0000000000000000000, 0.0000000000000000000, 1.500000000000000000 ) ) ;
#43 = DIRECTION ( 'NONE',  ( 0.0000000000000000000, 0.0000000000000000000, 1.000000000000000000 ) ) ;
#44 = DIRECTION ( 'NONE',  ( -0.0000000000000000000, -0.0000000000000000000, -1.000000000000000000 ) ) ;
#45 = AXIS2_PLACEMENT_3D ( 'NONE', #114, #126, #56 ) ;
#46 = DIRECTION ( 'NONE',  ( 0.0000000000000000000, 0.0000000000000000000, 1.000000000000000000 ) ) ;
#47 = DIRECTION ( 'NONE',  ( 0.0000000000000000000, 0.0000000000000000000, 1.000000000000000000 ) ) ;
#48 = EDGE_LOOP ( 'NONE', ( #52, #77, #40, #156 ) ) ;
#49 = PERSON_AND_ORGANIZATION_ROLE ( 'classification_officer' ) ;
#50 = APPROVAL ( #33, 'UNSPECIFIED' ) ;
#51 = ORIENTED_EDGE ( 'NONE', *, *, #26, .F. ) ;
#52 = ORIENTED_EDGE ( 'NONE', *, *, #84, .F. ) ;
#53 = ORIENTED_EDGE ( 'NONE', *, *, #29, .F. ) ;
#54 =( NAMED_UNIT ( * ) SI_UNIT ( $, .STERADIAN. ) SOLID_ANGLE_UNIT ( ) );
#55 = PRODUCT ( '36935_36959', '36935_36959', '', ( #128 ) ) ;
#56 = DIRECTION ( 'NONE',  ( 1.000000000000000000, 0.0000000000000000000, -0.0000000000000000000 ) ) ;
#57 = DIRECTION ( 'NONE',  ( -1.000000000000000000, 0.0000000000000000000, 0.0000000000000000000 ) ) ;
#58 = PRODUCT_RELATED_PRODUCT_CATEGORY ( 'detail', '', ( #55 ) ) ;
#59 =( LENGTH_UNIT ( ) NAMED_UNIT ( * ) SI_UNIT ( .MILLI., .METRE. ) );
#60 = PERSON_AND_ORGANIZATION ( #127, #18 ) ;
#61 = CARTESIAN_POINT ( 'NONE',  ( -37.49999999999999300, 0.0000000000000000000, 1.500000000000000000 ) ) ;
#62 = CYLINDRICAL_SURFACE ( 'NONE', #41, 37.49999999999999300 ) ;
#63 = COORDINATED_UNIVERSAL_TIME_OFFSET ( 5, 0, .BEHIND. ) ;
#64 = CC_DESIGN_APPROVAL ( #22, ( #110 ) ) ;
#65 = PERSON_AND_ORGANIZATION ( #127, #18 ) ;
#66 = ORIENTED_EDGE ( 'NONE', *, *, #86, .T. ) ;
#67 = CALENDAR_DATE ( 2017, 23, 8 ) ;
#68 = CALENDAR_DATE ( 2017, 23, 8 ) ;
#69 = DIRECTION ( 'NONE',  ( 1.000000000000000000, 0.0000000000000000000, 0.0000000000000000000 ) ) ;
#70 = DIRECTION ( 'NONE',  ( 0.0000000000000000000, 0.0000000000000000000, 1.000000000000000000 ) ) ;
#71 = APPROVAL_ROLE ( '' ) ;
#72 = COORDINATED_UNIVERSAL_TIME_OFFSET ( 5, 0, .BEHIND. ) ;
#73 = PERSON_AND_ORGANIZATION_ROLE ( 'design_supplier' ) ;
#74 = DATE_TIME_ROLE ( 'classification_date' ) ;
#75 = EDGE_CURVE ( 'NONE', #162, #32, #80, .T. ) ;
#76 = PRODUCT_DEFINITION_SHAPE ( 'NONE', 'NONE',  #110 ) ;
#77 = ORIENTED_EDGE ( 'NONE', *, *, #120, .F. ) ;
#78 = CIRCLE ( 'NONE', #81, 37.49999999999999300 ) ;
#79 = CC_DESIGN_SECURITY_CLASSIFICATION ( #157, ( #135 ) ) ;
#80 = LINE ( 'NONE', #21, #4 ) ;
#81 = AXIS2_PLACEMENT_3D ( 'NONE', #90, #47, #160 ) ;
#82 = CC_DESIGN_DATE_AND_TIME_ASSIGNMENT ( #96, #113, ( #110 ) ) ;
#83 = COORDINATED_UNIVERSAL_TIME_OFFSET ( 5, 0, .BEHIND. ) ;
#84 = EDGE_CURVE ( 'NONE', #16, #111, #94, .T. ) ;
#85 = APPLICATION_CONTEXT ( 'configuration controlled 3d designs of mechanical parts and assemblies' ) ;
#86 = EDGE_CURVE ( 'NONE', #16, #162, #125, .T. ) ;
#87 = ORIENTED_EDGE ( 'NONE', *, *, #29, .T. ) ;
#88 = PERSON_AND_ORGANIZATION_ROLE ( 'design_owner' ) ;
#89 = DIRECTION ( 'NONE',  ( -0.0000000000000000000, -0.0000000000000000000, -1.000000000000000000 ) ) ;
#90 = CARTESIAN_POINT ( 'NONE',  ( 0.0000000000000000000, 0.0000000000000000000, 1.500000000000000000 ) ) ;
#91 = PERSON_AND_ORGANIZATION ( #127, #18 ) ;
#92 = SHAPE_DEFINITION_REPRESENTATION ( #76, #11 ) ;
#93 = APPROVAL_DATE_TIME ( #25, #50 ) ;
#94 = LINE ( 'NONE', #115, #130 ) ;
#95 = CC_DESIGN_PERSON_AND_ORGANIZATION_ASSIGNMENT ( #91, #73, ( #135 ) ) ;
#96 = DATE_AND_TIME ( #167, #131 ) ;
#97 = FACE_OUTER_BOUND ( 'NONE', #48, .T. ) ;
#98 = AXIS2_PLACEMENT_3D ( 'NONE', #123, #43, #101 ) ;
#99 = APPROVAL_DATE_TIME ( #136, #13 ) ;
#100 = ORIENTED_EDGE ( 'NONE', *, *, #86, .F. ) ;
#101 = DIRECTION ( 'NONE',  ( 1.000000000000000000, 0.0000000000000000000, 0.0000000000000000000 ) ) ;
#102 = CC_DESIGN_PERSON_AND_ORGANIZATION_ASSIGNMENT ( #65, #103, ( #110 ) ) ;
#103 = PERSON_AND_ORGANIZATION_ROLE ( 'creator' ) ;
#104 = DIRECTION ( 'NONE',  ( 0.0000000000000000000, 0.0000000000000000000, 1.000000000000000000 ) ) ;
#105 = EDGE_LOOP ( 'NONE', ( #100, #15, #87, #117 ) ) ;
#106 = AXIS2_PLACEMENT_3D ( 'NONE', #42, #122, #150 ) ;
#107 = APPROVAL_PERSON_ORGANIZATION ( #60, #13, #133 ) ;
#108 = PERSON_AND_ORGANIZATION ( #127, #18 ) ;
#109 = APPROVAL_DATE_TIME ( #139, #22 ) ;
#110 = PRODUCT_DEFINITION ( 'UNKNOWN', '', #135, #164 ) ;
#111 = VERTEX_POINT ( 'NONE', #171 ) ;
#112 = DIRECTION ( 'NONE',  ( 1.000000000000000000, 0.0000000000000000000, 0.0000000000000000000 ) ) ;
#113 = DATE_TIME_ROLE ( 'creation_date' ) ;
#114 = CARTESIAN_POINT ( 'NONE',  ( 0.0000000000000000000, 0.0000000000000000000, -1.500000000000000000 ) ) ;
#115 = CARTESIAN_POINT ( 'NONE',  ( 37.49999999999999300, 4.592425496802573600E-015, 1.500000000000000000 ) ) ;
#116 = PERSON_AND_ORGANIZATION ( #127, #18 ) ;
#117 = ORIENTED_EDGE ( 'NONE', *, *, #75, .F. ) ;
#118 = PERSON_AND_ORGANIZATION ( #127, #18 ) ;
#119 = EDGE_LOOP ( 'NONE', ( #51, #53 ) ) ;
#120 = EDGE_CURVE ( 'NONE', #162, #16, #78, .T. ) ;
#121 = CC_DESIGN_APPROVAL ( #50, ( #135 ) ) ;
#122 = DIRECTION ( 'NONE',  ( 0.0000000000000000000, 0.0000000000000000000, 1.000000000000000000 ) ) ;
#123 = CARTESIAN_POINT ( 'NONE',  ( 0.0000000000000000000, 0.0000000000000000000, -1.500000000000000000 ) ) ;
#124 = PERSON_AND_ORGANIZATION ( #127, #18 ) ;
#125 = CIRCLE ( 'NONE', #37, 37.49999999999999300 ) ;
#126 = DIRECTION ( 'NONE',  ( 0.0000000000000000000, 0.0000000000000000000, 1.000000000000000000 ) ) ;
#127 = PERSON ( 'UNSPECIFIED', 'UNSPECIFIED', 'UNSPECIFIED', ('UNSPECIFIED'), ('UNSPECIFIED'), ('UNSPECIFIED') ) ;
#128 = MECHANICAL_CONTEXT ( 'NONE', #154, 'mechanical' ) ;
#129 = CARTESIAN_POINT ( 'NONE',  ( -37.49999999999999300, 0.0000000000000000000, -1.500000000000000000 ) ) ;
#130 = VECTOR ( 'NONE', #44, 1000.000000000000000 ) ;
#131 = LOCAL_TIME ( 16, 36, 14.00000000000000000, #12 ) ;
#132 = CLOSED_SHELL ( 'NONE', ( #170, #28, #5, #30 ) ) ;
#133 = APPROVAL_ROLE ( '' ) ;
#134 = APPROVAL_STATUS ( 'not_yet_approved' ) ;
#135 = PRODUCT_DEFINITION_FORMATION_WITH_SPECIFIED_SOURCE ( 'ANY', '', #55, .NOT_KNOWN. ) ;
#136 = DATE_AND_TIME ( #68, #38 ) ;
#137 = FACE_OUTER_BOUND ( 'NONE', #105, .T. ) ;
#138 = CARTESIAN_POINT ( 'NONE',  ( 37.49999999999999300, 4.592425496802573600E-015, 1.500000000000000000 ) ) ;
#139 = DATE_AND_TIME ( #67, #143 ) ;
#140 = CARTESIAN_POINT ( 'NONE',  ( 0.0000000000000000000, 0.0000000000000000000, 1.500000000000000000 ) ) ;
#141 = DIRECTION ( 'NONE',  ( -0.0000000000000000000, -0.0000000000000000000, -1.000000000000000000 ) ) ;
#142 = CC_DESIGN_PERSON_AND_ORGANIZATION_ASSIGNMENT ( #116, #88, ( #55 ) ) ;
#143 = LOCAL_TIME ( 16, 36, 14.00000000000000000, #17 ) ;
#144 = PERSON_AND_ORGANIZATION ( #127, #18 ) ;
#145 = CYLINDRICAL_SURFACE ( 'NONE', #20, 37.49999999999999300 ) ;
#146 = CC_DESIGN_PERSON_AND_ORGANIZATION_ASSIGNMENT ( #124, #8, ( #135 ) ) ;
#147 = FACE_OUTER_BOUND ( 'NONE', #165, .T. ) ;
#148 =( GEOMETRIC_REPRESENTATION_CONTEXT ( 3 ) GLOBAL_UNCERTAINTY_ASSIGNED_CONTEXT ( ( #166 ) ) GLOBAL_UNIT_ASSIGNED_CONTEXT ( ( #59, #10, #54 ) ) REPRESENTATION_CONTEXT ( 'NONE', 'WORKASPACE' ) );
#149 = AXIS2_PLACEMENT_3D ( 'NONE', #9, #104, #112 ) ;
#150 = DIRECTION ( 'NONE',  ( 1.000000000000000000, 0.0000000000000000000, -0.0000000000000000000 ) ) ;
#151 = LOCAL_TIME ( 16, 36, 14.00000000000000000, #83 ) ;
#152 = FACE_OUTER_BOUND ( 'NONE', #119, .T. ) ;
#153 = DIRECTION ( 'NONE',  ( -1.000000000000000000, 0.0000000000000000000, 0.0000000000000000000 ) ) ;
#154 = APPLICATION_CONTEXT ( 'configuration controlled 3d designs of mechanical parts and assemblies' ) ;
#155 = DIRECTION ( 'NONE',  ( 1.000000000000000000, 0.0000000000000000000, 0.0000000000000000000 ) ) ;
#156 = ORIENTED_EDGE ( 'NONE', *, *, #26, .T. ) ;
#157 = SECURITY_CLASSIFICATION ( '', '', #172 ) ;
#158 = CARTESIAN_POINT ( 'NONE',  ( 0.0000000000000000000, 0.0000000000000000000, 0.0000000000000000000 ) ) ;
#159 = APPROVAL_STATUS ( 'not_yet_approved' ) ;
#160 = DIRECTION ( 'NONE',  ( 1.000000000000000000, 0.0000000000000000000, 0.0000000000000000000 ) ) ;
#161 = APPROVAL_PERSON_ORGANIZATION ( #144, #22, #7 ) ;
#162 = VERTEX_POINT ( 'NONE', #61 ) ;
#163 = MANIFOLD_SOLID_BREP ( 'Boss-Extrude1', #132 ) ;
#164 = DESIGN_CONTEXT ( 'detailed design', #85, 'design' ) ;
#165 = EDGE_LOOP ( 'NONE', ( #23, #66 ) ) ;
#166 = UNCERTAINTY_MEASURE_WITH_UNIT (LENGTH_MEASURE( 1.000000000000000100E-005 ), #59, 'distance_accuracy_value', 'NONE');
#167 = CALENDAR_DATE ( 2017, 23, 8 ) ;
#168 = CALENDAR_DATE ( 2017, 23, 8 ) ;
#169 = APPLICATION_PROTOCOL_DEFINITION ( 'international standard', 'config_control_design', 1994, #154 ) ;
#170 = ADVANCED_FACE ( 'NONE', ( #137 ), #62, .T. ) ;
#171 = CARTESIAN_POINT ( 'NONE',  ( 37.49999999999999300, 4.592425496802573600E-015, -1.500000000000000000 ) ) ;
#172 = SECURITY_CLASSIFICATION_LEVEL ( 'unclassified' ) ;
#173 = CARTESIAN_POINT ( 'NONE',  ( 0.0000000000000000000, 0.0000000000000000000, 1.500000000000000000 ) ) ;
#174 = LOCAL_TIME ( 16, 36, 14.00000000000000000, #72 ) ;
#175 = CIRCLE ( 'NONE', #98, 37.49999999999999300 ) ;
ENDSEC;
END-ISO-10303-21;
