ISO-10303-21;
HEADER;
FILE_DESCRIPTION (( 'STEP AP203' ),
    '1' );
FILE_NAME ('TTN098098-E0W.STEP',
    '2019-12-09T20:52:58',
    ( '' ),
    ( '' ),
    'SwSTEP 2.0',
    'SolidWorks 2018',
    '' );
FILE_SCHEMA (( 'CONFIG_CONTROL_DESIGN' ));
ENDSEC;

DATA;
#1 = PRODUCT_RELATED_PRODUCT_CATEGORY ( 'detail', '', ( #2 ) ) ;
#2 = PRODUCT ( 'TTN098098-E0W', 'TTN098098-E0W', '', ( #212 ) ) ;
#3 = SPHERICAL_SURFACE ( 'NONE', #180, 105.2000000000001592 ) ;
#4 = CARTESIAN_POINT ( 'NONE',  ( 1.555301434917138433E-15, -12.69999999999999751, -1.799999999999838618 ) ) ;
#5 = CARTESIAN_POINT ( 'NONE',  ( 0.0000000000000000000, 8.547752349680193105E-16, -2.000000000000000000 ) ) ;
#6 = ORIENTED_EDGE ( 'NONE', *, *, #204, .T. ) ;
#7 = COORDINATED_UNIVERSAL_TIME_OFFSET ( 5, 0, .BEHIND. ) ;
#8 = COORDINATED_UNIVERSAL_TIME_OFFSET ( 5, 0, .BEHIND. ) ;
#9 = AXIS2_PLACEMENT_3D ( 'NONE', #59, #228, #82 ) ;
#10 = DIRECTION ( 'NONE',  ( -0.0000000000000000000, -6.349078012596855731E-15, -1.000000000000000000 ) ) ;
#11 = EDGE_CURVE ( 'NONE', #208, #214, #264, .T. ) ;
#12 = ORIENTED_EDGE ( 'NONE', *, *, #220, .F. ) ;
#13 = APPROVAL_ROLE ( '' ) ;
#14 = DIRECTION ( 'NONE',  ( 8.659560562354877391E-17, 0.7071067811865473507, 0.7071067811865477948 ) ) ;
#15 = ORIENTED_EDGE ( 'NONE', *, *, #282, .F. ) ;
#16 = PRODUCT_DEFINITION ( 'UNKNOWN', '', #260, #116 ) ;
#17 = DIRECTION ( 'NONE',  ( -1.000000000000000000, 0.0000000000000000000, 0.0000000000000000000 ) ) ;
#18 = PERSON_AND_ORGANIZATION ( #242, #137 ) ;
#19 = LINE ( 'NONE', #153, #243 ) ;
#20 = CC_DESIGN_APPROVAL ( #70, ( #260 ) ) ;
#21 = EDGE_LOOP ( 'NONE', ( #262, #235, #24, #74 ) ) ;
#22 = ADVANCED_BREP_SHAPE_REPRESENTATION ( 'TTN098098-E0W', ( #294, #292 ), #200 ) ;
#23 = ORIENTED_EDGE ( 'NONE', *, *, #192, .T. ) ;
#24 = ORIENTED_EDGE ( 'NONE', *, *, #284, .T. ) ;
#25 = LOCAL_TIME ( 15, 52, 58.00000000000000000, #8 ) ;
#26 = AXIS2_PLACEMENT_3D ( 'NONE', #103, #246, #77 ) ;
#27 = CIRCLE ( 'NONE', #148, 105.2000000000001592 ) ;
#28 = EDGE_LOOP ( 'NONE', ( #15, #254, #135 ) ) ;
#29 = DIRECTION ( 'NONE',  ( -0.0000000000000000000, 3.061515884555943146E-16, -1.000000000000000000 ) ) ;
#30 = DIRECTION ( 'NONE',  ( 1.000000000000000000, 0.0000000000000000000, -0.0000000000000000000 ) ) ;
#31 = CONICAL_SURFACE ( 'NONE', #9, 12.49999999999997868, 0.7853981633974569387 ) ;
#32 = CARTESIAN_POINT ( 'NONE',  ( 0.0000000000000000000, -12.69999999999999751, -1.799999999999838618 ) ) ;
#33 = APPROVAL ( #252, 'UNSPECIFIED' ) ;
#34 = PERSON_AND_ORGANIZATION ( #242, #137 ) ;
#35 = DIRECTION ( 'NONE',  ( 0.0000000000000000000, 1.000000000000000000, 3.073328992872295874E-16 ) ) ;
#36 = FACE_OUTER_BOUND ( 'NONE', #189, .T. ) ;
#37 = CARTESIAN_POINT ( 'NONE',  ( 0.0000000000000000000, 1.269815602519908479E-15, -1.799999999999919220 ) ) ;
#38 = DIRECTION ( 'NONE',  ( 0.0000000000000000000, 1.000000000000000000, -6.351546585269422287E-15 ) ) ;
#39 = CARTESIAN_POINT ( 'NONE',  ( 0.0000000000000000000, 1.251302772335701902E-14, -103.2000000000001876 ) ) ;
#40 = CARTESIAN_POINT ( 'NONE',  ( 0.0000000000000000000, 5.286661581538453620E-28, -1.999999999999920730 ) ) ;
#41 = PERSON_AND_ORGANIZATION ( #242, #137 ) ;
#42 = AXIS2_PLACEMENT_3D ( 'NONE', #87, #297, #130 ) ;
#43 =( LENGTH_UNIT ( ) NAMED_UNIT ( * ) SI_UNIT ( .MILLI., .METRE. ) );
#44 = ORIENTED_EDGE ( 'NONE', *, *, #164, .T. ) ;
#45 = LOCAL_TIME ( 15, 52, 58.00000000000000000, #238 ) ;
#46 = SECURITY_CLASSIFICATION ( '', '', #181 ) ;
#47 = ORIENTED_EDGE ( 'NONE', *, *, #125, .T. ) ;
#48 = COORDINATED_UNIVERSAL_TIME_OFFSET ( 5, 0, .BEHIND. ) ;
#49 = PERSON_AND_ORGANIZATION ( #242, #137 ) ;
#50 = CARTESIAN_POINT ( 'NONE',  ( 0.0000000000000000000, 1.269815602519908479E-15, -1.799999999999919220 ) ) ;
#51 = CARTESIAN_POINT ( 'NONE',  ( 0.0000000000000000000, 12.69999999999999929, 1.054727035208874453 ) ) ;
#52 = SPHERICAL_SURFACE ( 'NONE', #68, 105.2000000000001592 ) ;
#53 = CARTESIAN_POINT ( 'NONE',  ( 1.543054966925665076E-15, 12.50000000000000000, -2.000000000000000000 ) ) ;
#54 = DIRECTION ( 'NONE',  ( -0.0000000000000000000, -6.349078012596855731E-15, -1.000000000000000000 ) ) ;
#55 = DIRECTION ( 'NONE',  ( 0.0000000000000000000, 1.000000000000000000, -6.351546585269412032E-15 ) ) ;
#56 = EDGE_LOOP ( 'NONE', ( #63, #251, #257 ) ) ;
#57 = CC_DESIGN_DATE_AND_TIME_ASSIGNMENT ( #98, #186, ( #16 ) ) ;
#58 = CARTESIAN_POINT ( 'NONE',  ( 0.0000000000000000000, 1.269815602519908479E-15, -1.799999999999919220 ) ) ;
#59 = CARTESIAN_POINT ( 'NONE',  ( 0.0000000000000000000, 2.066451585624974414E-14, 1.254727035208953900 ) ) ;
#60 = VECTOR ( 'NONE', #29, 1000.000000000000000 ) ;
#61 = DIRECTION ( 'NONE',  ( 0.0000000000000000000, 1.000000000000000000, 3.073328992872295874E-16 ) ) ;
#62 = CC_DESIGN_APPROVAL ( #248, ( #46 ) ) ;
#63 = ORIENTED_EDGE ( 'NONE', *, *, #161, .F. ) ;
#64 = DIRECTION ( 'NONE',  ( -0.0000000000000000000, 3.061515884555943146E-16, -1.000000000000000000 ) ) ;
#65 = APPROVAL_PERSON_ORGANIZATION ( #124, #248, #66 ) ;
#66 = APPROVAL_ROLE ( '' ) ;
#67 = VECTOR ( 'NONE', #160, 1000.000000000000114 ) ;
#68 = AXIS2_PLACEMENT_3D ( 'NONE', #222, #30, #73 ) ;
#69 = CALENDAR_DATE ( 2019, 9, 12 ) ;
#70 = APPROVAL ( #109, 'UNSPECIFIED' ) ;
#71 = FACE_OUTER_BOUND ( 'NONE', #249, .T. ) ;
#72 = ORIENTED_EDGE ( 'NONE', *, *, #125, .F. ) ;
#73 = DIRECTION ( 'NONE',  ( 0.0000000000000000000, 1.000000000000000000, 2.638362701105406083E-16 ) ) ;
#74 = ORIENTED_EDGE ( 'NONE', *, *, #210, .F. ) ;
#75 = EDGE_LOOP ( 'NONE', ( #140, #147, #240, #287 ) ) ;
#76 = CC_DESIGN_DATE_AND_TIME_ASSIGNMENT ( #145, #206, ( #46 ) ) ;
#77 = DIRECTION ( 'NONE',  ( 0.0000000000000000000, 1.000000000000000000, -6.349087922075125010E-15 ) ) ;
#78 = LINE ( 'NONE', #177, #141 ) ;
#79 = DIRECTION ( 'NONE',  ( 0.0000000000000000000, 6.349078012596855731E-15, 1.000000000000000000 ) ) ;
#80 = CARTESIAN_POINT ( 'NONE',  ( 1.555301434917138433E-15, 12.70000000000000107, -1.800000000000000044 ) ) ;
#81 = AXIS2_PLACEMENT_3D ( 'NONE', #151, #196, #247 ) ;
#82 = DIRECTION ( 'NONE',  ( 0.0000000000000000000, 1.000000000000000000, -6.349087922075125010E-15 ) ) ;
#83 = ADVANCED_FACE ( 'NONE', ( #279 ), #52, .T. ) ;
#84 = APPLICATION_PROTOCOL_DEFINITION ( 'international standard', 'config_control_design', 1994, #253 ) ;
#85 = ORIENTED_EDGE ( 'NONE', *, *, #220, .T. ) ;
#86 = PERSON_AND_ORGANIZATION ( #242, #137 ) ;
#87 = CARTESIAN_POINT ( 'NONE',  ( 0.0000000000000000000, 2.066451585624974414E-14, 1.254727035208953900 ) ) ;
#88 = CC_DESIGN_PERSON_AND_ORGANIZATION_ASSIGNMENT ( #166, #299, ( #260 ) ) ;
#89 = LINE ( 'NONE', #80, #268 ) ;
#90 = VERTEX_POINT ( 'NONE', #51 ) ;
#91 = CIRCLE ( 'NONE', #144, 12.69999999999999929 ) ;
#92 = VECTOR ( 'NONE', #285, 1000.000000000000000 ) ;
#93 = PLANE ( 'NONE',  #123 ) ;
#94 = AXIS2_PLACEMENT_3D ( 'NONE', #40, #183, #236 ) ;
#95 = FACE_OUTER_BOUND ( 'NONE', #265, .T. ) ;
#96 = CARTESIAN_POINT ( 'NONE',  ( 0.0000000000000000000, 2.066451585624974414E-14, 1.254727035208953900 ) ) ;
#97 = ORIENTED_EDGE ( 'NONE', *, *, #204, .F. ) ;
#98 = DATE_AND_TIME ( #197, #258 ) ;
#99 = DIRECTION ( 'NONE',  ( -0.0000000000000000000, 3.061515884555943146E-16, -1.000000000000000000 ) ) ;
#100 = CIRCLE ( 'NONE', #256, 12.69999999999997975 ) ;
#101 = CARTESIAN_POINT ( 'NONE',  ( 0.0000000000000000000, 1.939470025373038530E-14, 1.054727035208955277 ) ) ;
#102 = DIRECTION ( 'NONE',  ( -0.0000000000000000000, 3.061515884555943146E-16, -1.000000000000000000 ) ) ;
#103 = CARTESIAN_POINT ( 'NONE',  ( 0.0000000000000000000, 2.066451585624974414E-14, 1.254727035208953900 ) ) ;
#104 = DIRECTION ( 'NONE',  ( 0.0000000000000000000, 0.0000000000000000000, 1.000000000000000000 ) ) ;
#105 = ADVANCED_FACE ( 'NONE', ( #36 ), #293, .T. ) ;
#106 = CLOSED_SHELL ( 'NONE', ( #132, #234, #105, #271, #134, #138, #108, #207, #83 ) ) ;
#107 = DIRECTION ( 'NONE',  ( 1.000000000000000000, 0.0000000000000000000, 0.0000000000000000000 ) ) ;
#108 = ADVANCED_FACE ( 'NONE', ( #95 ), #93, .T. ) ;
#109 = APPROVAL_STATUS ( 'not_yet_approved' ) ;
#110 = ORIENTED_EDGE ( 'NONE', *, *, #128, .T. ) ;
#111 = LOCAL_TIME ( 15, 52, 58.00000000000000000, #7 ) ;
#112 = APPROVAL_DATE_TIME ( #209, #33 ) ;
#113 = AXIS2_PLACEMENT_3D ( 'NONE', #155, #158, #203 ) ;
#114 = FACE_OUTER_BOUND ( 'NONE', #150, .T. ) ;
#115 = VERTEX_POINT ( 'NONE', #53 ) ;
#116 = DESIGN_CONTEXT ( 'detailed design', #211, 'design' ) ;
#117 = CC_DESIGN_PERSON_AND_ORGANIZATION_ASSIGNMENT ( #41, #133, ( #260 ) ) ;
#118 = CARTESIAN_POINT ( 'NONE',  ( 0.0000000000000000000, -12.50000000000000000, -1.999999999999841238 ) ) ;
#119 = LINE ( 'NONE', #32, #92 ) ;
#120 = VERTEX_POINT ( 'NONE', #118 ) ;
#121 = DIRECTION ( 'NONE',  ( 0.0000000000000000000, 1.000000000000000000, 3.061515884555943146E-16 ) ) ;
#122 = CARTESIAN_POINT ( 'NONE',  ( 0.0000000000000000000, 1.269815602519908479E-15, -1.799999999999919220 ) ) ;
#123 = AXIS2_PLACEMENT_3D ( 'NONE', #261, #194, #121 ) ;
#124 = PERSON_AND_ORGANIZATION ( #242, #137 ) ;
#125 = EDGE_CURVE ( 'NONE', #120, #129, #119, .T. ) ;
#126 = DIRECTION ( 'NONE',  ( 0.0000000000000000000, 1.000000000000000000, 2.638362701105406083E-16 ) ) ;
#127 = CONICAL_SURFACE ( 'NONE', #42, 12.49999999999997868, 0.7853981633974569387 ) ;
#128 = EDGE_CURVE ( 'NONE', #165, #129, #146, .T. ) ;
#129 = VERTEX_POINT ( 'NONE', #4 ) ;
#130 = DIRECTION ( 'NONE',  ( 0.0000000000000000000, 1.000000000000000000, -6.349087922075125010E-15 ) ) ;
#131 = PERSON_AND_ORGANIZATION_ROLE ( 'classification_officer' ) ;
#132 = ADVANCED_FACE ( 'NONE', ( #205 ), #3, .T. ) ;
#133 = PERSON_AND_ORGANIZATION_ROLE ( 'design_supplier' ) ;
#134 = ADVANCED_FACE ( 'NONE', ( #114 ), #277, .T. ) ;
#135 = ORIENTED_EDGE ( 'NONE', *, *, #170, .F. ) ;
#136 = CARTESIAN_POINT ( 'NONE',  ( 0.0000000000000000000, 8.547752349680193105E-16, -2.000000000000000000 ) ) ;
#137 = ORGANIZATION ( 'UNSPECIFIED', 'UNSPECIFIED', '' ) ;
#138 = ADVANCED_FACE ( 'NONE', ( #221 ), #195, .T. ) ;
#139 = CC_DESIGN_PERSON_AND_ORGANIZATION_ASSIGNMENT ( #86, #131, ( #46 ) ) ;
#140 = ORIENTED_EDGE ( 'NONE', *, *, #170, .T. ) ;
#141 = VECTOR ( 'NONE', #102, 1000.000000000000000 ) ;
#142 = UNCERTAINTY_MEASURE_WITH_UNIT (LENGTH_MEASURE( 1.000000000000000082E-05 ), #43, 'distance_accuracy_value', 'NONE');
#143 = ORIENTED_EDGE ( 'NONE', *, *, #164, .F. ) ;
#144 = AXIS2_PLACEMENT_3D ( 'NONE', #37, #226, #55 ) ;
#145 = DATE_AND_TIME ( #191, #25 ) ;
#146 = LINE ( 'NONE', #172, #60 ) ;
#147 = ORIENTED_EDGE ( 'NONE', *, *, #225, .T. ) ;
#148 = AXIS2_PLACEMENT_3D ( 'NONE', #39, #17, #230 ) ;
#149 = EDGE_LOOP ( 'NONE', ( #12, #185, #47, #215 ) ) ;
#150 = EDGE_LOOP ( 'NONE', ( #175, #223, #44, #244 ) ) ;
#151 = CARTESIAN_POINT ( 'NONE',  ( 0.0000000000000000000, 5.286661581538453620E-28, -1.999999999999920730 ) ) ;
#152 = APPROVAL_DATE_TIME ( #232, #70 ) ;
#153 = CARTESIAN_POINT ( 'NONE',  ( 1.530808498934188957E-15, -12.49999999999995737, 1.254727035209033392 ) ) ;
#154 = CIRCLE ( 'NONE', #81, 12.50000000000000000 ) ;
#155 = CARTESIAN_POINT ( 'NONE',  ( 0.0000000000000000000, 1.251302772335701902E-14, -103.2000000000001876 ) ) ;
#156 = EDGE_CURVE ( 'NONE', #129, #202, #229, .T. ) ;
#157 = DIRECTION ( 'NONE',  ( 0.0000000000000000000, -1.000000000000000000, 6.351546585269412032E-15 ) ) ;
#158 = DIRECTION ( 'NONE',  ( 1.000000000000000000, 1.224646799147353207E-16, 3.749275628560213616E-32 ) ) ;
#159 = CIRCLE ( 'NONE', #26, 12.49999999999997868 ) ;
#160 = DIRECTION ( 'NONE',  ( 0.0000000000000000000, 0.7071067811865491270, -0.7071067811865459074 ) ) ;
#161 = EDGE_CURVE ( 'NONE', #298, #208, #188, .T. ) ;
#162 =( NAMED_UNIT ( * ) SI_UNIT ( $, .STERADIAN. ) SOLID_ANGLE_UNIT ( ) );
#163 = APPROVAL_DATE_TIME ( #283, #248 ) ;
#164 = EDGE_CURVE ( 'NONE', #90, #202, #78, .T. ) ;
#165 = VERTEX_POINT ( 'NONE', #199 ) ;
#166 = PERSON_AND_ORGANIZATION ( #242, #137 ) ;
#167 = AXIS2_PLACEMENT_3D ( 'NONE', #58, #79, #157 ) ;
#168 = LOCAL_TIME ( 15, 52, 58.00000000000000000, #237 ) ;
#169 = CARTESIAN_POINT ( 'NONE',  ( 0.0000000000000000000, 1.251302772335701902E-14, -103.2000000000001876 ) ) ;
#170 = EDGE_CURVE ( 'NONE', #214, #208, #159, .T. ) ;
#171 = DIRECTION ( 'NONE',  ( 0.0000000000000000000, 1.000000000000000000, -6.349087922075125010E-15 ) ) ;
#172 = CARTESIAN_POINT ( 'NONE',  ( 1.555301434917138630E-15, -12.70000000000000107, -2.000000000000003997 ) ) ;
#173 = CC_DESIGN_PERSON_AND_ORGANIZATION_ASSIGNMENT ( #49, #273, ( #16 ) ) ;
#174 = DIRECTION ( 'NONE',  ( 0.0000000000000000000, 1.000000000000000000, -6.351546585269422287E-15 ) ) ;
#175 = ORIENTED_EDGE ( 'NONE', *, *, #128, .F. ) ;
#176 = EDGE_CURVE ( 'NONE', #120, #115, #154, .T. ) ;
#177 = CARTESIAN_POINT ( 'NONE',  ( 0.0000000000000000000, 12.70000000000000107, -1.999999999999996225 ) ) ;
#178 = PERSON_AND_ORGANIZATION ( #242, #137 ) ;
#179 = CYLINDRICAL_SURFACE ( 'NONE', #187, 12.70000000000000107 ) ;
#180 = AXIS2_PLACEMENT_3D ( 'NONE', #169, #288, #126 ) ;
#181 = SECURITY_CLASSIFICATION_LEVEL ( 'unclassified' ) ;
#182 = PERSON_AND_ORGANIZATION_ROLE ( 'design_owner' ) ;
#183 = DIRECTION ( 'NONE',  ( -0.0000000000000000000, -6.349078012596855731E-15, -1.000000000000000000 ) ) ;
#184 = CARTESIAN_POINT ( 'NONE',  ( 0.0000000000000000000, 12.49999999999999822, 1.254727035208874630 ) ) ;
#185 = ORIENTED_EDGE ( 'NONE', *, *, #176, .F. ) ;
#186 = DATE_TIME_ROLE ( 'creation_date' ) ;
#187 = AXIS2_PLACEMENT_3D ( 'NONE', #136, #64, #61 ) ;
#188 = CIRCLE ( 'NONE', #113, 105.2000000000001592 ) ;
#189 = EDGE_LOOP ( 'NONE', ( #295, #85, #6, #72 ) ) ;
#190 = ORIENTED_EDGE ( 'NONE', *, *, #176, .T. ) ;
#191 = CALENDAR_DATE ( 2019, 9, 12 ) ;
#192 = EDGE_CURVE ( 'NONE', #90, #165, #100, .T. ) ;
#193 = FACE_OUTER_BOUND ( 'NONE', #75, .T. ) ;
#194 = DIRECTION ( 'NONE',  ( -0.0000000000000000000, 3.061515884555943146E-16, -1.000000000000000000 ) ) ;
#195 = CONICAL_SURFACE ( 'NONE', #167, 12.69999999999999929, 0.7853981633974418397 ) ;
#196 = DIRECTION ( 'NONE',  ( -0.0000000000000000000, -6.349078012596855731E-15, -1.000000000000000000 ) ) ;
#197 = CALENDAR_DATE ( 2019, 9, 12 ) ;
#198 = SHAPE_DEFINITION_REPRESENTATION ( #280, #22 ) ;
#199 = CARTESIAN_POINT ( 'NONE',  ( 1.555301434917136263E-15, -12.69999999999996199, 1.054727035209035879 ) ) ;
#200 =( GEOMETRIC_REPRESENTATION_CONTEXT ( 3 ) GLOBAL_UNCERTAINTY_ASSIGNED_CONTEXT ( ( #142 ) ) GLOBAL_UNIT_ASSIGNED_CONTEXT ( ( #43, #231, #162 ) ) REPRESENTATION_CONTEXT ( 'NONE', 'WORKASPACE' ) );
#201 = CIRCLE ( 'NONE', #94, 12.50000000000000000 ) ;
#202 = VERTEX_POINT ( 'NONE', #289 ) ;
#203 = DIRECTION ( 'NONE',  ( -1.224646799147353207E-16, 1.000000000000000000, 0.0000000000000000000 ) ) ;
#204 = EDGE_CURVE ( 'NONE', #202, #129, #91, .T. ) ;
#205 = FACE_OUTER_BOUND ( 'NONE', #28, .T. ) ;
#206 = DATE_TIME_ROLE ( 'classification_date' ) ;
#207 = ADVANCED_FACE ( 'NONE', ( #301 ), #31, .T. ) ;
#208 = VERTEX_POINT ( 'NONE', #270 ) ;
#209 = DATE_AND_TIME ( #241, #111 ) ;
#210 = EDGE_CURVE ( 'NONE', #165, #90, #217, .T. ) ;
#211 = APPLICATION_CONTEXT ( 'configuration controlled 3d designs of mechanical parts and assemblies' ) ;
#212 = MECHANICAL_CONTEXT ( 'NONE', #253, 'mechanical' ) ;
#213 = AXIS2_PLACEMENT_3D ( 'NONE', #5, #99, #35 ) ;
#214 = VERTEX_POINT ( 'NONE', #245 ) ;
#215 = ORIENTED_EDGE ( 'NONE', *, *, #156, .T. ) ;
#216 = APPROVAL_PERSON_ORGANIZATION ( #178, #33, #13 ) ;
#217 = CIRCLE ( 'NONE', #269, 12.69999999999997975 ) ;
#218 = AXIS2_PLACEMENT_3D ( 'NONE', #122, #10, #224 ) ;
#219 = DIRECTION ( 'NONE',  ( 0.0000000000000000000, 6.349078012596855731E-15, 1.000000000000000000 ) ) ;
#220 = EDGE_CURVE ( 'NONE', #115, #202, #89, .T. ) ;
#221 = FACE_OUTER_BOUND ( 'NONE', #149, .T. ) ;
#222 = CARTESIAN_POINT ( 'NONE',  ( 0.0000000000000000000, 1.251302772335701902E-14, -103.2000000000001876 ) ) ;
#223 = ORIENTED_EDGE ( 'NONE', *, *, #210, .T. ) ;
#224 = DIRECTION ( 'NONE',  ( 0.0000000000000000000, 1.000000000000000000, -6.351546585269412032E-15 ) ) ;
#225 = EDGE_CURVE ( 'NONE', #208, #165, #19, .T. ) ;
#226 = DIRECTION ( 'NONE',  ( -0.0000000000000000000, -6.349078012596855731E-15, -1.000000000000000000 ) ) ;
#227 = CALENDAR_DATE ( 2019, 9, 12 ) ;
#228 = DIRECTION ( 'NONE',  ( -0.0000000000000000000, -6.349078012596855731E-15, -1.000000000000000000 ) ) ;
#229 = CIRCLE ( 'NONE', #218, 12.69999999999999929 ) ;
#230 = DIRECTION ( 'NONE',  ( 0.0000000000000000000, 0.0000000000000000000, 1.000000000000000000 ) ) ;
#231 =( NAMED_UNIT ( * ) PLANE_ANGLE_UNIT ( ) SI_UNIT ( $, .RADIAN. ) );
#232 = DATE_AND_TIME ( #69, #45 ) ;
#233 = CARTESIAN_POINT ( 'NONE',  ( 0.0000000000000000000, 0.0000000000000000000, 0.0000000000000000000 ) ) ;
#234 = ADVANCED_FACE ( 'NONE', ( #193 ), #127, .T. ) ;
#235 = ORIENTED_EDGE ( 'NONE', *, *, #11, .T. ) ;
#236 = DIRECTION ( 'NONE',  ( 0.0000000000000000000, 1.000000000000000000, -6.349087922075113966E-15 ) ) ;
#237 = COORDINATED_UNIVERSAL_TIME_OFFSET ( 5, 0, .BEHIND. ) ;
#238 = COORDINATED_UNIVERSAL_TIME_OFFSET ( 5, 0, .BEHIND. ) ;
#239 = CC_DESIGN_APPROVAL ( #33, ( #16 ) ) ;
#240 = ORIENTED_EDGE ( 'NONE', *, *, #192, .F. ) ;
#241 = CALENDAR_DATE ( 2019, 9, 12 ) ;
#242 = PERSON ( 'UNSPECIFIED', 'UNSPECIFIED', 'UNSPECIFIED', ('UNSPECIFIED'), ('UNSPECIFIED'), ('UNSPECIFIED') ) ;
#243 = VECTOR ( 'NONE', #275, 1000.000000000000114 ) ;
#244 = ORIENTED_EDGE ( 'NONE', *, *, #156, .F. ) ;
#245 = CARTESIAN_POINT ( 'NONE',  ( 0.0000000000000000000, 12.49999999999999822, 1.254727035208874630 ) ) ;
#246 = DIRECTION ( 'NONE',  ( -0.0000000000000000000, -6.349078012596855731E-15, -1.000000000000000000 ) ) ;
#247 = DIRECTION ( 'NONE',  ( 0.0000000000000000000, 1.000000000000000000, -6.349087922075113966E-15 ) ) ;
#248 = APPROVAL ( #274, 'UNSPECIFIED' ) ;
#249 = EDGE_LOOP ( 'NONE', ( #23, #110, #97, #143 ) ) ;
#250 = DIRECTION ( 'NONE',  ( -0.0000000000000000000, -6.349078012596855731E-15, -1.000000000000000000 ) ) ;
#251 = ORIENTED_EDGE ( 'NONE', *, *, #282, .T. ) ;
#252 = APPROVAL_STATUS ( 'not_yet_approved' ) ;
#253 = APPLICATION_CONTEXT ( 'configuration controlled 3d designs of mechanical parts and assemblies' ) ;
#254 = ORIENTED_EDGE ( 'NONE', *, *, #161, .T. ) ;
#255 = APPLICATION_PROTOCOL_DEFINITION ( 'international standard', 'config_control_design', 1994, #211 ) ;
#256 = AXIS2_PLACEMENT_3D ( 'NONE', #101, #250, #38 ) ;
#257 = ORIENTED_EDGE ( 'NONE', *, *, #11, .F. ) ;
#258 = LOCAL_TIME ( 15, 52, 58.00000000000000000, #48 ) ;
#259 = LINE ( 'NONE', #184, #67 ) ;
#260 = PRODUCT_DEFINITION_FORMATION_WITH_SPECIFIED_SOURCE ( 'ANY', '', #2, .NOT_KNOWN. ) ;
#261 = CARTESIAN_POINT ( 'NONE',  ( 0.0000000000000000000, 8.547752349680199021E-16, -2.000000000000001776 ) ) ;
#262 = ORIENTED_EDGE ( 'NONE', *, *, #225, .F. ) ;
#263 = EDGE_CURVE ( 'NONE', #115, #120, #201, .T. ) ;
#264 = CIRCLE ( 'NONE', #267, 12.49999999999997868 ) ;
#265 = EDGE_LOOP ( 'NONE', ( #190, #291 ) ) ;
#266 = CARTESIAN_POINT ( 'NONE',  ( 0.0000000000000000000, 1.939470025373038530E-14, 1.054727035208955277 ) ) ;
#267 = AXIS2_PLACEMENT_3D ( 'NONE', #96, #54, #171 ) ;
#268 = VECTOR ( 'NONE', #14, 999.9999999999998863 ) ;
#269 = AXIS2_PLACEMENT_3D ( 'NONE', #266, #290, #174 ) ;
#270 = CARTESIAN_POINT ( 'NONE',  ( 1.543054966925662512E-15, -12.49999999999995737, 1.254727035209033392 ) ) ;
#271 = ADVANCED_FACE ( 'NONE', ( #71 ), #179, .T. ) ;
#272 = CARTESIAN_POINT ( 'NONE',  ( 0.0000000000000000000, -1.325247721865646185E-14, 1.999999999999974021 ) ) ;
#273 = PERSON_AND_ORGANIZATION_ROLE ( 'creator' ) ;
#274 = APPROVAL_STATUS ( 'not_yet_approved' ) ;
#275 = DIRECTION ( 'NONE',  ( 8.659560562355008046E-17, -0.7071067811865580088, -0.7071067811865369146 ) ) ;
#276 = APPROVAL_ROLE ( '' ) ;
#277 = CYLINDRICAL_SURFACE ( 'NONE', #213, 12.70000000000000107 ) ;
#278 = CC_DESIGN_SECURITY_CLASSIFICATION ( #46, ( #260 ) ) ;
#279 = FACE_OUTER_BOUND ( 'NONE', #56, .T. ) ;
#280 = PRODUCT_DEFINITION_SHAPE ( 'NONE', 'NONE',  #16 ) ;
#281 = AXIS2_PLACEMENT_3D ( 'NONE', #50, #219, #286 ) ;
#282 = EDGE_CURVE ( 'NONE', #298, #214, #27, .T. ) ;
#283 = DATE_AND_TIME ( #227, #168 ) ;
#284 = EDGE_CURVE ( 'NONE', #214, #90, #259, .T. ) ;
#285 = DIRECTION ( 'NONE',  ( 0.0000000000000000000, -0.7071067811865384689, 0.7071067811865565655 ) ) ;
#286 = DIRECTION ( 'NONE',  ( 0.0000000000000000000, -1.000000000000000000, 6.351546585269412032E-15 ) ) ;
#287 = ORIENTED_EDGE ( 'NONE', *, *, #284, .F. ) ;
#288 = DIRECTION ( 'NONE',  ( 1.000000000000000000, 0.0000000000000000000, -0.0000000000000000000 ) ) ;
#289 = CARTESIAN_POINT ( 'NONE',  ( 0.0000000000000000000, 12.70000000000000107, -1.800000000000000044 ) ) ;
#290 = DIRECTION ( 'NONE',  ( -0.0000000000000000000, -6.349078012596855731E-15, -1.000000000000000000 ) ) ;
#291 = ORIENTED_EDGE ( 'NONE', *, *, #263, .T. ) ;
#292 = AXIS2_PLACEMENT_3D ( 'NONE', #233, #104, #107 ) ;
#293 = CONICAL_SURFACE ( 'NONE', #281, 12.69999999999999929, 0.7853981633974418397 ) ;
#294 = MANIFOLD_SOLID_BREP ( 'TTN098099-1-solid1', #106 ) ;
#295 = ORIENTED_EDGE ( 'NONE', *, *, #263, .F. ) ;
#296 = APPROVAL_PERSON_ORGANIZATION ( #18, #70, #276 ) ;
#297 = DIRECTION ( 'NONE',  ( -0.0000000000000000000, -6.349078012596855731E-15, -1.000000000000000000 ) ) ;
#298 = VERTEX_POINT ( 'NONE', #272 ) ;
#299 = PERSON_AND_ORGANIZATION_ROLE ( 'creator' ) ;
#300 = CC_DESIGN_PERSON_AND_ORGANIZATION_ASSIGNMENT ( #34, #182, ( #2 ) ) ;
#301 = FACE_OUTER_BOUND ( 'NONE', #21, .T. ) ;
ENDSEC;
END-ISO-10303-21;
