ISO-10303-21;
HEADER;
FILE_DESCRIPTION (( 'STEP AP203' ),
    '1' );
FILE_NAME ('Web Model 88232_88232.step',
    '2019-05-20T15:26:23',
    ( '' ),
    ( '' ),
    'SwSTEP 2.0',
    'SolidWorks 2018',
    '' );
FILE_SCHEMA (( 'CONFIG_CONTROL_DESIGN' ));
ENDSEC;

DATA;
#1 = PERSON_AND_ORGANIZATION_ROLE ( 'design_owner' ) ;
#2 = ADVANCED_FACE ( 'NONE', ( #220 ), #58, .F. ) ;
#3 = APPROVAL ( #218, 'UNSPECIFIED' ) ;
#4 = APPLICATION_PROTOCOL_DEFINITION ( 'international standard', 'config_control_design', 1994, #79 ) ;
#5 = FACE_OUTER_BOUND ( 'NONE', #24, .T. ) ;
#6 = EDGE_CURVE ( 'NONE', #249, #298, #203, .T. ) ;
#7 = DATE_TIME_ROLE ( 'classification_date' ) ;
#8 = FACE_OUTER_BOUND ( 'NONE', #34, .T. ) ;
#9 = EDGE_CURVE ( 'NONE', #246, #50, #10, .T. ) ;
#10 = LINE ( 'NONE', #257, #296 ) ;
#11 = ORIENTED_EDGE ( 'NONE', *, *, #265, .T. ) ;
#12 = LOCAL_TIME ( 11, 26, 23.00000000000000000, #146 ) ;
#13 = AXIS2_PLACEMENT_3D ( 'NONE', #111, #131, #318 ) ;
#14 = FACE_OUTER_BOUND ( 'NONE', #309, .T. ) ;
#15 = CARTESIAN_POINT ( 'NONE',  ( -6.349999999999998757, 6.349999999999998757, 6.349999999999999645 ) ) ;
#16 = CARTESIAN_POINT ( 'NONE',  ( 6.349999999999998757, -6.349999999999998757, 6.349999999999999645 ) ) ;
#17 = LINE ( 'NONE', #239, #88 ) ;
#18 = PLANE ( 'NONE',  #90 ) ;
#19 = APPROVAL_PERSON_ORGANIZATION ( #85, #3, #274 ) ;
#20 = ORIENTED_EDGE ( 'NONE', *, *, #138, .T. ) ;
#21 = DIRECTION ( 'NONE',  ( 0.0000000000000000000, -0.0000000000000000000, 1.000000000000000000 ) ) ;
#22 = DATE_AND_TIME ( #151, #42 ) ;
#23 = ORIENTED_EDGE ( 'NONE', *, *, #92, .T. ) ;
#24 = EDGE_LOOP ( 'NONE', ( #284, #95, #312 ) ) ;
#25 = PERSON_AND_ORGANIZATION_ROLE ( 'creator' ) ;
#26 =( LENGTH_UNIT ( ) NAMED_UNIT ( * ) SI_UNIT ( .MILLI., .METRE. ) );
#27 = CARTESIAN_POINT ( 'NONE',  ( 0.0000000000000000000, 0.0000000000000000000, 6.349999999999999645 ) ) ;
#28 = APPROVAL_PERSON_ORGANIZATION ( #236, #201, #115 ) ;
#29 =( GEOMETRIC_REPRESENTATION_CONTEXT ( 3 ) GLOBAL_UNCERTAINTY_ASSIGNED_CONTEXT ( ( #235 ) ) GLOBAL_UNIT_ASSIGNED_CONTEXT ( ( #26, #302, #121 ) ) REPRESENTATION_CONTEXT ( 'NONE', 'WORKASPACE' ) );
#30 = LOCAL_TIME ( 11, 26, 23.00000000000000000, #206 ) ;
#31 = ORIENTED_EDGE ( 'NONE', *, *, #150, .F. ) ;
#32 = EDGE_CURVE ( 'NONE', #114, #177, #260, .T. ) ;
#33 = PERSON_AND_ORGANIZATION ( #81, #49 ) ;
#34 = EDGE_LOOP ( 'NONE', ( #301, #306, #128 ) ) ;
#35 = PERSON_AND_ORGANIZATION ( #81, #49 ) ;
#36 = VECTOR ( 'NONE', #61, 1000.000000000000114 ) ;
#37 = DIRECTION ( 'NONE',  ( -0.0000000000000000000, -0.0000000000000000000, -1.000000000000000000 ) ) ;
#38 = ORIENTED_EDGE ( 'NONE', *, *, #65, .F. ) ;
#39 = EDGE_CURVE ( 'NONE', #249, #114, #248, .T. ) ;
#40 = DIRECTION ( 'NONE',  ( -0.0000000000000000000, -0.0000000000000000000, -1.000000000000000000 ) ) ;
#41 = CARTESIAN_POINT ( 'NONE',  ( 6.349999999999999645, 6.349999999999999645, 6.349999999999999645 ) ) ;
#42 = LOCAL_TIME ( 11, 26, 23.00000000000000000, #68 ) ;
#43 = CARTESIAN_POINT ( 'NONE',  ( 0.0000000000000000000, 6.349999999999999645, 6.349999999999999645 ) ) ;
#44 = CARTESIAN_POINT ( 'NONE',  ( 0.0000000000000000000, -6.349999999999999645, -6.349999999999999645 ) ) ;
#45 = DIRECTION ( 'NONE',  ( 1.000000000000000000, 0.0000000000000000000, 0.0000000000000000000 ) ) ;
#46 = VECTOR ( 'NONE', #286, 1000.000000000000000 ) ;
#47 = DIRECTION ( 'NONE',  ( -1.000000000000000000, 0.0000000000000000000, 0.0000000000000000000 ) ) ;
#48 = PERSON_AND_ORGANIZATION_ROLE ( 'classification_officer' ) ;
#49 = ORGANIZATION ( 'UNSPECIFIED', 'UNSPECIFIED', '' ) ;
#50 = VERTEX_POINT ( 'NONE', #15 ) ;
#51 = DIRECTION ( 'NONE',  ( 0.0000000000000000000, 0.0000000000000000000, 1.000000000000000000 ) ) ;
#52 = EDGE_CURVE ( 'NONE', #268, #272, #59, .T. ) ;
#53 = VECTOR ( 'NONE', #78, 1000.000000000000114 ) ;
#54 = CLOSED_SHELL ( 'NONE', ( #2, #276, #226, #270, #140 ) ) ;
#55 = EDGE_CURVE ( 'NONE', #50, #285, #196, .T. ) ;
#56 = ORIENTED_EDGE ( 'NONE', *, *, #32, .T. ) ;
#57 = CC_DESIGN_DATE_AND_TIME_ASSIGNMENT ( #22, #7, ( #153 ) ) ;
#58 = PLANE ( 'NONE',  #145 ) ;
#59 = LINE ( 'NONE', #184, #126 ) ;
#60 = CARTESIAN_POINT ( 'NONE',  ( -0.0000000000000000000, 6.349999999999999645, -6.349999999999999645 ) ) ;
#61 = DIRECTION ( 'NONE',  ( 0.7071067811865474617, -0.7071067811865474617, 0.0000000000000000000 ) ) ;
#62 = FACE_OUTER_BOUND ( 'NONE', #104, .T. ) ;
#63 = DIRECTION ( 'NONE',  ( 0.7071067811865474617, -0.7071067811865474617, 0.0000000000000000000 ) ) ;
#64 = ORIENTED_EDGE ( 'NONE', *, *, #55, .F. ) ;
#65 = EDGE_CURVE ( 'NONE', #298, #272, #320, .T. ) ;
#66 = DIRECTION ( 'NONE',  ( 0.0000000000000000000, 1.000000000000000000, 0.0000000000000000000 ) ) ;
#67 = DIRECTION ( 'NONE',  ( -1.000000000000000000, 0.0000000000000000000, 0.0000000000000000000 ) ) ;
#68 = COORDINATED_UNIVERSAL_TIME_OFFSET ( 5, 0, .BEHIND. ) ;
#69 = LINE ( 'NONE', #307, #245 ) ;
#70 = MANIFOLD_SOLID_BREP ( 'Boss-Extrude2', #101 ) ;
#71 = DIRECTION ( 'NONE',  ( 0.0000000000000000000, 1.000000000000000000, 0.0000000000000000000 ) ) ;
#72 = CC_DESIGN_DATE_AND_TIME_ASSIGNMENT ( #253, #197, ( #134 ) ) ;
#73 = CARTESIAN_POINT ( 'NONE',  ( 6.349999999999998757, -6.349999999999998757, 6.349999999999999645 ) ) ;
#74 = PERSON_AND_ORGANIZATION_ROLE ( 'design_supplier' ) ;
#75 = ORIENTED_EDGE ( 'NONE', *, *, #32, .F. ) ;
#76 = AXIS2_PLACEMENT_3D ( 'NONE', #162, #66, #189 ) ;
#77 = ORIENTED_EDGE ( 'NONE', *, *, #168, .T. ) ;
#78 = DIRECTION ( 'NONE',  ( 0.7071067811865474617, -0.7071067811865474617, 0.0000000000000000000 ) ) ;
#79 = APPLICATION_CONTEXT ( 'configuration controlled 3d designs of mechanical parts and assemblies' ) ;
#80 = FACE_OUTER_BOUND ( 'NONE', #280, .T. ) ;
#81 = PERSON ( 'UNSPECIFIED', 'UNSPECIFIED', 'UNSPECIFIED', ('UNSPECIFIED'), ('UNSPECIFIED'), ('UNSPECIFIED') ) ;
#82 = EDGE_CURVE ( 'NONE', #114, #268, #69, .T. ) ;
#83 = LINE ( 'NONE', #132, #271 ) ;
#84 = ORIENTED_EDGE ( 'NONE', *, *, #287, .T. ) ;
#85 = PERSON_AND_ORGANIZATION ( #81, #49 ) ;
#86 = VECTOR ( 'NONE', #313, 1000.000000000000000 ) ;
#87 = CC_DESIGN_APPROVAL ( #213, ( #316 ) ) ;
#88 = VECTOR ( 'NONE', #137, 1000.000000000000000 ) ;
#89 = ORIENTED_EDGE ( 'NONE', *, *, #160, .T. ) ;
#90 = AXIS2_PLACEMENT_3D ( 'NONE', #293, #67, #321 ) ;
#91 = PLANE ( 'NONE',  #154 ) ;
#92 = EDGE_CURVE ( 'NONE', #177, #272, #193, .T. ) ;
#93 = MECHANICAL_CONTEXT ( 'NONE', #79, 'mechanical' ) ;
#94 = EDGE_LOOP ( 'NONE', ( #227, #238, #261, #77 ) ) ;
#95 = ORIENTED_EDGE ( 'NONE', *, *, #244, .T. ) ;
#96 = APPLICATION_PROTOCOL_DEFINITION ( 'international standard', 'config_control_design', 1994, #194 ) ;
#97 = SECURITY_CLASSIFICATION_LEVEL ( 'unclassified' ) ;
#98 = CALENDAR_DATE ( 2019, 20, 5 ) ;
#99 = CALENDAR_DATE ( 2019, 20, 5 ) ;
#100 = LINE ( 'NONE', #214, #210 ) ;
#101 = CLOSED_SHELL ( 'NONE', ( #252, #166, #297, #300, #219 ) ) ;
#102 = AXIS2_PLACEMENT_3D ( 'NONE', #251, #223, #277 ) ;
#103 = CALENDAR_DATE ( 2019, 20, 5 ) ;
#104 = EDGE_LOOP ( 'NONE', ( #279, #233, #221 ) ) ;
#105 = CARTESIAN_POINT ( 'NONE',  ( 0.0000000000000000000, 0.0000000000000000000, 6.349999999999999645 ) ) ;
#106 = ORIENTED_EDGE ( 'NONE', *, *, #179, .F. ) ;
#107 = CARTESIAN_POINT ( 'NONE',  ( 0.0000000000000000000, 0.0000000000000000000, 6.349999999999999645 ) ) ;
#108 = ORIENTED_EDGE ( 'NONE', *, *, #138, .F. ) ;
#109 = DIRECTION ( 'NONE',  ( 0.7071067811865474617, -0.7071067811865474617, 0.0000000000000000000 ) ) ;
#110 = CARTESIAN_POINT ( 'NONE',  ( -6.349999999999999645, 0.0000000000000000000, -6.349999999999999645 ) ) ;
#111 = CARTESIAN_POINT ( 'NONE',  ( 0.0000000000000000000, 0.0000000000000000000, -6.349999999999999645 ) ) ;
#112 = DATE_AND_TIME ( #141, #180 ) ;
#113 = LINE ( 'NONE', #273, #53 ) ;
#114 = VERTEX_POINT ( 'NONE', #262 ) ;
#115 = APPROVAL_ROLE ( '' ) ;
#116 = CARTESIAN_POINT ( 'NONE',  ( 0.0000000000000000000, 0.0000000000000000000, 0.0000000000000000000 ) ) ;
#117 = PLANE ( 'NONE',  #275 ) ;
#118 = CC_DESIGN_PERSON_AND_ORGANIZATION_ASSIGNMENT ( #319, #1, ( #205 ) ) ;
#119 = VECTOR ( 'NONE', #109, 1000.000000000000114 ) ;
#120 = ORIENTED_EDGE ( 'NONE', *, *, #9, .T. ) ;
#121 =( NAMED_UNIT ( * ) SI_UNIT ( $, .STERADIAN. ) SOLID_ANGLE_UNIT ( ) );
#122 = VECTOR ( 'NONE', #310, 1000.000000000000000 ) ;
#123 = VECTOR ( 'NONE', #317, 1000.000000000000000 ) ;
#124 = ORIENTED_EDGE ( 'NONE', *, *, #168, .F. ) ;
#125 = PERSON_AND_ORGANIZATION ( #81, #49 ) ;
#126 = VECTOR ( 'NONE', #37, 1000.000000000000000 ) ;
#127 = DIRECTION ( 'NONE',  ( 0.0000000000000000000, 1.000000000000000000, -0.0000000000000000000 ) ) ;
#128 = ORIENTED_EDGE ( 'NONE', *, *, #208, .F. ) ;
#129 = DIRECTION ( 'NONE',  ( 0.0000000000000000000, 1.000000000000000000, -0.0000000000000000000 ) ) ;
#130 = ORIENTED_EDGE ( 'NONE', *, *, #82, .F. ) ;
#131 = DIRECTION ( 'NONE',  ( -0.0000000000000000000, 0.0000000000000000000, 1.000000000000000000 ) ) ;
#132 = CARTESIAN_POINT ( 'NONE',  ( 0.0000000000000000000, 6.349999999999999645, 6.349999999999999645 ) ) ;
#133 = PLANE ( 'NONE',  #13 ) ;
#134 = PRODUCT_DEFINITION ( 'UNKNOWN', '', #316, #182 ) ;
#135 = APPROVAL_DATE_TIME ( #289, #201 ) ;
#136 = FACE_OUTER_BOUND ( 'NONE', #186, .T. ) ;
#137 = DIRECTION ( 'NONE',  ( 1.000000000000000000, 0.0000000000000000000, 0.0000000000000000000 ) ) ;
#138 = EDGE_CURVE ( 'NONE', #246, #164, #228, .T. ) ;
#139 = CARTESIAN_POINT ( 'NONE',  ( -6.349999999999999645, -6.349999999999999645, 6.349999999999999645 ) ) ;
#140 = ADVANCED_FACE ( 'NONE', ( #62 ), #133, .F. ) ;
#141 = CALENDAR_DATE ( 2019, 20, 5 ) ;
#142 = APPROVAL_ROLE ( '' ) ;
#143 = ORIENTED_EDGE ( 'NONE', *, *, #9, .F. ) ;
#144 = DIRECTION ( 'NONE',  ( -0.7071067811865474617, 0.7071067811865474617, 0.0000000000000000000 ) ) ;
#145 = AXIS2_PLACEMENT_3D ( 'NONE', #107, #282, #259 ) ;
#146 = COORDINATED_UNIVERSAL_TIME_OFFSET ( 5, 0, .BEHIND. ) ;
#147 = FACE_OUTER_BOUND ( 'NONE', #149, .T. ) ;
#148 = VECTOR ( 'NONE', #234, 1000.000000000000000 ) ;
#149 = EDGE_LOOP ( 'NONE', ( #38, #171, #181, #314 ) ) ;
#150 = EDGE_CURVE ( 'NONE', #246, #285, #17, .T. ) ;
#151 = CALENDAR_DATE ( 2019, 20, 5 ) ;
#152 = ORIENTED_EDGE ( 'NONE', *, *, #150, .T. ) ;
#153 = SECURITY_CLASSIFICATION ( '', '', #97 ) ;
#154 = AXIS2_PLACEMENT_3D ( 'NONE', #264, #212, #216 ) ;
#155 = CARTESIAN_POINT ( 'NONE',  ( -6.349999999999998757, 6.349999999999998757, 6.349999999999999645 ) ) ;
#156 = COORDINATED_UNIVERSAL_TIME_OFFSET ( 5, 0, .BEHIND. ) ;
#157 = VECTOR ( 'NONE', #291, 1000.000000000000000 ) ;
#158 = EDGE_LOOP ( 'NONE', ( #143, #152, #64 ) ) ;
#159 = CARTESIAN_POINT ( 'NONE',  ( -6.349999999999999645, -6.349999999999999645, -6.349999999999999645 ) ) ;
#160 = EDGE_CURVE ( 'NONE', #50, #304, #255, .T. ) ;
#161 = PLANE ( 'NONE',  #76 ) ;
#162 = CARTESIAN_POINT ( 'NONE',  ( 0.0000000000000000000, -6.349999999999999645, 6.349999999999999645 ) ) ;
#163 = LINE ( 'NONE', #237, #185 ) ;
#164 = VERTEX_POINT ( 'NONE', #159 ) ;
#165 = DIRECTION ( 'NONE',  ( 1.000000000000000000, 0.0000000000000000000, 0.0000000000000000000 ) ) ;
#166 = ADVANCED_FACE ( 'NONE', ( #136 ), #161, .F. ) ;
#167 = APPROVAL_STATUS ( 'not_yet_approved' ) ;
#168 = EDGE_CURVE ( 'NONE', #285, #230, #163, .T. ) ;
#169 = PLANE ( 'NONE',  #303 ) ;
#170 = DATE_AND_TIME ( #98, #215 ) ;
#171 = ORIENTED_EDGE ( 'NONE', *, *, #6, .F. ) ;
#172 = CC_DESIGN_PERSON_AND_ORGANIZATION_ASSIGNMENT ( #191, #222, ( #134 ) ) ;
#173 = COORDINATED_UNIVERSAL_TIME_OFFSET ( 5, 0, .BEHIND. ) ;
#174 = ORIENTED_EDGE ( 'NONE', *, *, #39, .F. ) ;
#175 = ADVANCED_BREP_SHAPE_REPRESENTATION ( 'Web Model 88232_88232', ( #70, #202, #258 ), #29 ) ;
#176 = LINE ( 'NONE', #110, #157 ) ;
#177 = VERTEX_POINT ( 'NONE', #269 ) ;
#178 = CC_DESIGN_APPROVAL ( #201, ( #134 ) ) ;
#179 = EDGE_CURVE ( 'NONE', #164, #304, #176, .T. ) ;
#180 = LOCAL_TIME ( 11, 26, 23.00000000000000000, #173 ) ;
#181 = ORIENTED_EDGE ( 'NONE', *, *, #208, .T. ) ;
#182 = DESIGN_CONTEXT ( 'detailed design', #194, 'design' ) ;
#183 = CC_DESIGN_PERSON_AND_ORGANIZATION_ASSIGNMENT ( #35, #48, ( #153 ) ) ;
#184 = CARTESIAN_POINT ( 'NONE',  ( 6.349999999999999645, 6.349999999999999645, 6.349999999999999645 ) ) ;
#185 = VECTOR ( 'NONE', #263, 1000.000000000000000 ) ;
#186 = EDGE_LOOP ( 'NONE', ( #11, #124, #31, #20 ) ) ;
#187 = CARTESIAN_POINT ( 'NONE',  ( -6.349999999999998757, 6.349999999999998757, -6.349999999999999645 ) ) ;
#188 = CARTESIAN_POINT ( 'NONE',  ( -6.349999999999998757, 6.349999999999998757, 6.349999999999999645 ) ) ;
#189 = DIRECTION ( 'NONE',  ( 0.0000000000000000000, -0.0000000000000000000, 1.000000000000000000 ) ) ;
#190 = PRODUCT_RELATED_PRODUCT_CATEGORY ( 'detail', '', ( #205 ) ) ;
#191 = PERSON_AND_ORGANIZATION ( #81, #49 ) ;
#192 = PLANE ( 'NONE',  #305 ) ;
#193 = LINE ( 'NONE', #311, #232 ) ;
#194 = APPLICATION_CONTEXT ( 'configuration controlled 3d designs of mechanical parts and assemblies' ) ;
#195 = CARTESIAN_POINT ( 'NONE',  ( 6.349999999999999645, 0.0000000000000000000, 6.349999999999999645 ) ) ;
#196 = LINE ( 'NONE', #209, #36 ) ;
#197 = DATE_TIME_ROLE ( 'creation_date' ) ;
#198 = CARTESIAN_POINT ( 'NONE',  ( -6.349999999999998757, 6.349999999999998757, -6.349999999999999645 ) ) ;
#199 = FACE_OUTER_BOUND ( 'NONE', #158, .T. ) ;
#200 = EDGE_LOOP ( 'NONE', ( #84, #75, #174, #204 ) ) ;
#201 = APPROVAL ( #167, 'UNSPECIFIED' ) ;
#202 = MANIFOLD_SOLID_BREP ( 'Boss-Extrude3', #54 ) ;
#203 = LINE ( 'NONE', #155, #122 ) ;
#204 = ORIENTED_EDGE ( 'NONE', *, *, #6, .T. ) ;
#205 = PRODUCT ( 'Web Model 88232_88232', 'Web Model 88232_88232', '', ( #93 ) ) ;
#206 = COORDINATED_UNIVERSAL_TIME_OFFSET ( 5, 0, .BEHIND. ) ;
#207 = FACE_OUTER_BOUND ( 'NONE', #94, .T. ) ;
#208 = EDGE_CURVE ( 'NONE', #249, #268, #83, .T. ) ;
#209 = CARTESIAN_POINT ( 'NONE',  ( 0.0000000000000000000, 0.0000000000000000000, 6.349999999999999645 ) ) ;
#210 = VECTOR ( 'NONE', #63, 1000.000000000000114 ) ;
#211 = CARTESIAN_POINT ( 'NONE',  ( 6.349999999999998757, -6.349999999999998757, -6.349999999999999645 ) ) ;
#212 = DIRECTION ( 'NONE',  ( -0.0000000000000000000, 0.0000000000000000000, 1.000000000000000000 ) ) ;
#213 = APPROVAL ( #295, 'UNSPECIFIED' ) ;
#214 = CARTESIAN_POINT ( 'NONE',  ( -0.0000000000000000000, 0.0000000000000000000, -6.349999999999999645 ) ) ;
#215 = LOCAL_TIME ( 11, 26, 23.00000000000000000, #156 ) ;
#216 = DIRECTION ( 'NONE',  ( 1.000000000000000000, 0.0000000000000000000, 0.0000000000000000000 ) ) ;
#217 = CARTESIAN_POINT ( 'NONE',  ( 0.0000000000000000000, 0.0000000000000000000, -6.349999999999999645 ) ) ;
#218 = APPROVAL_STATUS ( 'not_yet_approved' ) ;
#219 = ADVANCED_FACE ( 'NONE', ( #5 ), #290, .F. ) ;
#220 = FACE_OUTER_BOUND ( 'NONE', #200, .T. ) ;
#221 = ORIENTED_EDGE ( 'NONE', *, *, #92, .F. ) ;
#222 = PERSON_AND_ORGANIZATION_ROLE ( 'creator' ) ;
#223 = DIRECTION ( 'NONE',  ( -0.0000000000000000000, 0.0000000000000000000, 1.000000000000000000 ) ) ;
#224 = DIRECTION ( 'NONE',  ( 0.7071067811865475727, 0.7071067811865475727, -0.0000000000000000000 ) ) ;
#225 = SHAPE_DEFINITION_REPRESENTATION ( #283, #175 ) ;
#226 = ADVANCED_FACE ( 'NONE', ( #147 ), #192, .T. ) ;
#227 = ORIENTED_EDGE ( 'NONE', *, *, #244, .F. ) ;
#228 = LINE ( 'NONE', #267, #123 ) ;
#229 = CC_DESIGN_APPROVAL ( #3, ( #153 ) ) ;
#230 = VERTEX_POINT ( 'NONE', #211 ) ;
#231 = DIRECTION ( 'NONE',  ( 0.0000000000000000000, 1.000000000000000000, -0.0000000000000000000 ) ) ;
#232 = VECTOR ( 'NONE', #129, 1000.000000000000000 ) ;
#233 = ORIENTED_EDGE ( 'NONE', *, *, #65, .T. ) ;
#234 = DIRECTION ( 'NONE',  ( -0.0000000000000000000, -0.0000000000000000000, -1.000000000000000000 ) ) ;
#235 = UNCERTAINTY_MEASURE_WITH_UNIT (LENGTH_MEASURE( 1.000000000000000082E-05 ), #26, 'distance_accuracy_value', 'NONE');
#236 = PERSON_AND_ORGANIZATION ( #81, #49 ) ;
#237 = CARTESIAN_POINT ( 'NONE',  ( 6.349999999999998757, -6.349999999999998757, 6.349999999999999645 ) ) ;
#238 = ORIENTED_EDGE ( 'NONE', *, *, #160, .F. ) ;
#239 = CARTESIAN_POINT ( 'NONE',  ( 0.0000000000000000000, -6.349999999999999645, 6.349999999999999645 ) ) ;
#240 = CARTESIAN_POINT ( 'NONE',  ( 6.349999999999999645, 6.349999999999999645, -6.349999999999999645 ) ) ;
#241 = CC_DESIGN_PERSON_AND_ORGANIZATION_ASSIGNMENT ( #125, #25, ( #316 ) ) ;
#242 = DIRECTION ( 'NONE',  ( -0.0000000000000000000, 0.0000000000000000000, 1.000000000000000000 ) ) ;
#243 = APPROVAL_DATE_TIME ( #112, #3 ) ;
#244 = EDGE_CURVE ( 'NONE', #304, #230, #100, .T. ) ;
#245 = VECTOR ( 'NONE', #231, 1000.000000000000000 ) ;
#246 = VERTEX_POINT ( 'NONE', #139 ) ;
#247 = PLANE ( 'NONE',  #102 ) ;
#248 = LINE ( 'NONE', #105, #119 ) ;
#249 = VERTEX_POINT ( 'NONE', #188 ) ;
#250 = CC_DESIGN_SECURITY_CLASSIFICATION ( #153, ( #316 ) ) ;
#251 = CARTESIAN_POINT ( 'NONE',  ( 0.0000000000000000000, 0.0000000000000000000, 6.349999999999999645 ) ) ;
#252 = ADVANCED_FACE ( 'NONE', ( #80 ), #18, .T. ) ;
#253 = DATE_AND_TIME ( #103, #30 ) ;
#254 = VECTOR ( 'NONE', #40, 1000.000000000000000 ) ;
#255 = LINE ( 'NONE', #288, #254 ) ;
#256 = ORIENTED_EDGE ( 'NONE', *, *, #52, .F. ) ;
#257 = CARTESIAN_POINT ( 'NONE',  ( -6.349999999999999645, 0.0000000000000000000, 6.349999999999999645 ) ) ;
#258 = AXIS2_PLACEMENT_3D ( 'NONE', #116, #51, #165 ) ;
#259 = DIRECTION ( 'NONE',  ( -0.7071067811865474617, 0.7071067811865474617, 0.0000000000000000000 ) ) ;
#260 = LINE ( 'NONE', #16, #148 ) ;
#261 = ORIENTED_EDGE ( 'NONE', *, *, #55, .T. ) ;
#262 = CARTESIAN_POINT ( 'NONE',  ( 6.349999999999998757, -6.349999999999998757, 6.349999999999999645 ) ) ;
#263 = DIRECTION ( 'NONE',  ( -0.0000000000000000000, -0.0000000000000000000, -1.000000000000000000 ) ) ;
#264 = CARTESIAN_POINT ( 'NONE',  ( 0.0000000000000000000, 0.0000000000000000000, 6.349999999999999645 ) ) ;
#265 = EDGE_CURVE ( 'NONE', #164, #230, #278, .T. ) ;
#266 = PERSON_AND_ORGANIZATION ( #81, #49 ) ;
#267 = CARTESIAN_POINT ( 'NONE',  ( -6.349999999999999645, -6.349999999999999645, 6.349999999999999645 ) ) ;
#268 = VERTEX_POINT ( 'NONE', #41 ) ;
#269 = CARTESIAN_POINT ( 'NONE',  ( 6.349999999999998757, -6.349999999999998757, -6.349999999999999645 ) ) ;
#270 = ADVANCED_FACE ( 'NONE', ( #8 ), #91, .T. ) ;
#271 = VECTOR ( 'NONE', #45, 1000.000000000000000 ) ;
#272 = VERTEX_POINT ( 'NONE', #240 ) ;
#273 = CARTESIAN_POINT ( 'NONE',  ( -0.0000000000000000000, 0.0000000000000000000, -6.349999999999999645 ) ) ;
#274 = APPROVAL_ROLE ( '' ) ;
#275 = AXIS2_PLACEMENT_3D ( 'NONE', #195, #47, #299 ) ;
#276 = ADVANCED_FACE ( 'NONE', ( #14 ), #117, .F. ) ;
#277 = DIRECTION ( 'NONE',  ( 1.000000000000000000, 0.0000000000000000000, 0.0000000000000000000 ) ) ;
#278 = LINE ( 'NONE', #44, #86 ) ;
#279 = ORIENTED_EDGE ( 'NONE', *, *, #287, .F. ) ;
#280 = EDGE_LOOP ( 'NONE', ( #106, #108, #120, #89 ) ) ;
#281 = APPROVAL_PERSON_ORGANIZATION ( #266, #213, #142 ) ;
#282 = DIRECTION ( 'NONE',  ( 0.7071067811865475727, 0.7071067811865475727, -0.0000000000000000000 ) ) ;
#283 = PRODUCT_DEFINITION_SHAPE ( 'NONE', 'NONE',  #134 ) ;
#284 = ORIENTED_EDGE ( 'NONE', *, *, #179, .T. ) ;
#285 = VERTEX_POINT ( 'NONE', #73 ) ;
#286 = DIRECTION ( 'NONE',  ( 1.000000000000000000, 0.0000000000000000000, 0.0000000000000000000 ) ) ;
#287 = EDGE_CURVE ( 'NONE', #298, #177, #113, .T. ) ;
#288 = CARTESIAN_POINT ( 'NONE',  ( -6.349999999999998757, 6.349999999999998757, 6.349999999999999645 ) ) ;
#289 = DATE_AND_TIME ( #99, #12 ) ;
#290 = PLANE ( 'NONE',  #294 ) ;
#291 = DIRECTION ( 'NONE',  ( 0.0000000000000000000, 1.000000000000000000, -0.0000000000000000000 ) ) ;
#292 = CC_DESIGN_PERSON_AND_ORGANIZATION_ASSIGNMENT ( #33, #74, ( #316 ) ) ;
#293 = CARTESIAN_POINT ( 'NONE',  ( -6.349999999999999645, 0.0000000000000000000, 6.349999999999999645 ) ) ;
#294 = AXIS2_PLACEMENT_3D ( 'NONE', #217, #242, #315 ) ;
#295 = APPROVAL_STATUS ( 'not_yet_approved' ) ;
#296 = VECTOR ( 'NONE', #127, 1000.000000000000000 ) ;
#297 = ADVANCED_FACE ( 'NONE', ( #207 ), #169, .T. ) ;
#298 = VERTEX_POINT ( 'NONE', #187 ) ;
#299 = DIRECTION ( 'NONE',  ( 0.0000000000000000000, 0.0000000000000000000, 1.000000000000000000 ) ) ;
#300 = ADVANCED_FACE ( 'NONE', ( #199 ), #247, .T. ) ;
#301 = ORIENTED_EDGE ( 'NONE', *, *, #39, .T. ) ;
#302 =( NAMED_UNIT ( * ) PLANE_ANGLE_UNIT ( ) SI_UNIT ( $, .RADIAN. ) );
#303 = AXIS2_PLACEMENT_3D ( 'NONE', #27, #224, #144 ) ;
#304 = VERTEX_POINT ( 'NONE', #198 ) ;
#305 = AXIS2_PLACEMENT_3D ( 'NONE', #43, #71, #21 ) ;
#306 = ORIENTED_EDGE ( 'NONE', *, *, #82, .T. ) ;
#307 = CARTESIAN_POINT ( 'NONE',  ( 6.349999999999999645, 0.0000000000000000000, 6.349999999999999645 ) ) ;
#308 = APPROVAL_DATE_TIME ( #170, #213 ) ;
#309 = EDGE_LOOP ( 'NONE', ( #23, #256, #130, #56 ) ) ;
#310 = DIRECTION ( 'NONE',  ( -0.0000000000000000000, -0.0000000000000000000, -1.000000000000000000 ) ) ;
#311 = CARTESIAN_POINT ( 'NONE',  ( 6.349999999999999645, 0.0000000000000000000, -6.349999999999999645 ) ) ;
#312 = ORIENTED_EDGE ( 'NONE', *, *, #265, .F. ) ;
#313 = DIRECTION ( 'NONE',  ( 1.000000000000000000, 0.0000000000000000000, 0.0000000000000000000 ) ) ;
#314 = ORIENTED_EDGE ( 'NONE', *, *, #52, .T. ) ;
#315 = DIRECTION ( 'NONE',  ( 1.000000000000000000, 0.0000000000000000000, 0.0000000000000000000 ) ) ;
#316 = PRODUCT_DEFINITION_FORMATION_WITH_SPECIFIED_SOURCE ( 'ANY', '', #205, .NOT_KNOWN. ) ;
#317 = DIRECTION ( 'NONE',  ( -0.0000000000000000000, -0.0000000000000000000, -1.000000000000000000 ) ) ;
#318 = DIRECTION ( 'NONE',  ( 1.000000000000000000, 0.0000000000000000000, 0.0000000000000000000 ) ) ;
#319 = PERSON_AND_ORGANIZATION ( #81, #49 ) ;
#320 = LINE ( 'NONE', #60, #46 ) ;
#321 = DIRECTION ( 'NONE',  ( 0.0000000000000000000, 0.0000000000000000000, 1.000000000000000000 ) ) ;
ENDSEC;
END-ISO-10303-21;
