ISO-10303-21;
HEADER;
FILE_DESCRIPTION (( 'STEP AP203' ),
    '1' );
FILE_NAME ('Web Model 68157_20766.step',
    '2022-03-15T19:18:35',
    ( '' ),
    ( '' ),
    'SwSTEP 2.0',
    'SolidWorks 2021',
    '' );
FILE_SCHEMA (( 'CONFIG_CONTROL_DESIGN' ));
ENDSEC;

DATA;
#1 =( GEOMETRIC_REPRESENTATION_CONTEXT ( 3 ) GLOBAL_UNCERTAINTY_ASSIGNED_CONTEXT ( ( #100 ) ) GLOBAL_UNIT_ASSIGNED_CONTEXT ( ( #103, #29, #67 ) ) REPRESENTATION_CONTEXT ( 'NONE', 'WORKASPACE' ) );
#2 = LINE ( 'NONE', #145, #149 ) ;
#3 = CARTESIAN_POINT ( 'NONE',  ( 0.000000000000000000, 0.000000000000000000, 0.5000000000000000000 ) ) ;
#4 = PRODUCT_RELATED_PRODUCT_CATEGORY ( 'detail', '', ( #61 ) ) ;
#5 = EDGE_CURVE ( 'NONE', #76, #51, #18, .T. ) ;
#6 = CALENDAR_DATE ( 2022, 15, 3 ) ;
#7 = LOCAL_TIME ( 15, 18, 35.00000000000000000, #123 ) ;
#8 = APPLICATION_PROTOCOL_DEFINITION ( 'international standard', 'config_control_design', 1994, #40 ) ;
#9 = CIRCLE ( 'NONE', #161, 6.349999999999999645 ) ;
#10 = ADVANCED_BREP_SHAPE_REPRESENTATION ( 'Web Model 68157_20766', ( #75, #45 ), #1 ) ;
#11 = CC_DESIGN_DATE_AND_TIME_ASSIGNMENT ( #155, #90, ( #96 ) ) ;
#12 = ORIENTED_EDGE ( 'NONE', *, *, #26, .T. ) ;
#13 = VERTEX_POINT ( 'NONE', #159 ) ;
#14 = ORIENTED_EDGE ( 'NONE', *, *, #167, .F. ) ;
#15 = CARTESIAN_POINT ( 'NONE',  ( 0.000000000000000000, 0.000000000000000000, 0.5000000000000000000 ) ) ;
#16 = CARTESIAN_POINT ( 'NONE',  ( 0.000000000000000000, 0.000000000000000000, 0.000000000000000000 ) ) ;
#17 = APPROVAL_STATUS ( 'not_yet_approved' ) ;
#18 = CIRCLE ( 'NONE', #31, 6.349999999999999645 ) ;
#19 = DIRECTION ( 'NONE',  ( 1.000000000000000000, 0.000000000000000000, -0.000000000000000000 ) ) ;
#20 = AXIS2_PLACEMENT_3D ( 'NONE', #3, #42, #55 ) ;
#21 = CARTESIAN_POINT ( 'NONE',  ( -6.349999999999999645, 0.000000000000000000, 0.5000000000000000000 ) ) ;
#22 = COORDINATED_UNIVERSAL_TIME_OFFSET ( 5, 0, .BEHIND. ) ;
#23 = ORIENTED_EDGE ( 'NONE', *, *, #167, .T. ) ;
#24 = CC_DESIGN_SECURITY_CLASSIFICATION ( #105, ( #120 ) ) ;
#25 = ORIENTED_EDGE ( 'NONE', *, *, #74, .F. ) ;
#26 = EDGE_CURVE ( 'NONE', #112, #13, #164, .T. ) ;
#27 = DIRECTION ( 'NONE',  ( 0.000000000000000000, 0.000000000000000000, 1.000000000000000000 ) ) ;
#28 = DESIGN_CONTEXT ( 'detailed design', #126, 'design' ) ;
#29 =( NAMED_UNIT ( * ) PLANE_ANGLE_UNIT ( ) SI_UNIT ( $, .RADIAN. ) );
#30 = CARTESIAN_POINT ( 'NONE',  ( 0.000000000000000000, 0.000000000000000000, 0.5000000000000000000 ) ) ;
#31 = AXIS2_PLACEMENT_3D ( 'NONE', #65, #98, #50 ) ;
#32 = CALENDAR_DATE ( 2022, 15, 3 ) ;
#33 = CALENDAR_DATE ( 2022, 15, 3 ) ;
#34 = COORDINATED_UNIVERSAL_TIME_OFFSET ( 5, 0, .BEHIND. ) ;
#35 = EDGE_CURVE ( 'NONE', #51, #76, #169, .T. ) ;
#36 = CALENDAR_DATE ( 2022, 15, 3 ) ;
#37 = ORIENTED_EDGE ( 'NONE', *, *, #5, .T. ) ;
#38 = EDGE_LOOP ( 'NONE', ( #73, #23, #12, #25 ) ) ;
#39 = CC_DESIGN_PERSON_AND_ORGANIZATION_ASSIGNMENT ( #138, #47, ( #96 ) ) ;
#40 = APPLICATION_CONTEXT ( 'configuration controlled 3d designs of mechanical parts and assemblies' ) ;
#41 = ORIENTED_EDGE ( 'NONE', *, *, #137, .T. ) ;
#42 = DIRECTION ( 'NONE',  ( 0.000000000000000000, 0.000000000000000000, 1.000000000000000000 ) ) ;
#43 = CARTESIAN_POINT ( 'NONE',  ( -6.349999999999999645, 0.000000000000000000, 0.5000000000000000000 ) ) ;
#44 = APPROVAL_STATUS ( 'not_yet_approved' ) ;
#45 = AXIS2_PLACEMENT_3D ( 'NONE', #132, #104, #83 ) ;
#46 = APPROVAL_DATE_TIME ( #156, #153 ) ;
#47 = PERSON_AND_ORGANIZATION_ROLE ( 'creator' ) ;
#48 = CC_DESIGN_APPROVAL ( #147, ( #96 ) ) ;
#49 = APPROVAL_ROLE ( '' ) ;
#50 = DIRECTION ( 'NONE',  ( 1.000000000000000000, 0.000000000000000000, 0.000000000000000000 ) ) ;
#51 = VERTEX_POINT ( 'NONE', #57 ) ;
#52 = ADVANCED_FACE ( 'NONE', ( #66 ), #143, .T. ) ;
#53 = EDGE_LOOP ( 'NONE', ( #140, #78 ) ) ;
#54 = PERSON_AND_ORGANIZATION_ROLE ( 'design_owner' ) ;
#55 = DIRECTION ( 'NONE',  ( 1.000000000000000000, 0.000000000000000000, -0.000000000000000000 ) ) ;
#56 = DIRECTION ( 'NONE',  ( 0.000000000000000000, 0.000000000000000000, 1.000000000000000000 ) ) ;
#57 = CARTESIAN_POINT ( 'NONE',  ( 6.349999999999999645, 7.776507174585692163E-16, 0.5000000000000000000 ) ) ;
#58 = MECHANICAL_CONTEXT ( 'NONE', #40, 'mechanical' ) ;
#59 = CC_DESIGN_PERSON_AND_ORGANIZATION_ASSIGNMENT ( #136, #172, ( #105 ) ) ;
#60 = SECURITY_CLASSIFICATION_LEVEL ( 'unclassified' ) ;
#61 = PRODUCT ( 'Web Model 68157_20766', 'Web Model 68157_20766', '', ( #58 ) ) ;
#62 = AXIS2_PLACEMENT_3D ( 'NONE', #30, #101, #163 ) ;
#63 = CLOSED_SHELL ( 'NONE', ( #69, #52, #114, #84 ) ) ;
#64 = AXIS2_PLACEMENT_3D ( 'NONE', #15, #115, #117 ) ;
#65 = CARTESIAN_POINT ( 'NONE',  ( 0.000000000000000000, 0.000000000000000000, 0.5000000000000000000 ) ) ;
#66 = FACE_OUTER_BOUND ( 'NONE', #175, .T. ) ;
#67 =( NAMED_UNIT ( * ) SI_UNIT ( $, .STERADIAN. ) SOLID_ANGLE_UNIT ( ) );
#68 = COORDINATED_UNIVERSAL_TIME_OFFSET ( 5, 0, .BEHIND. ) ;
#69 = ADVANCED_FACE ( 'NONE', ( #85 ), #129, .T. ) ;
#70 = AXIS2_PLACEMENT_3D ( 'NONE', #162, #130, #19 ) ;
#71 = COORDINATED_UNIVERSAL_TIME_OFFSET ( 5, 0, .BEHIND. ) ;
#72 = CC_DESIGN_DATE_AND_TIME_ASSIGNMENT ( #146, #168, ( #105 ) ) ;
#73 = ORIENTED_EDGE ( 'NONE', *, *, #35, .F. ) ;
#74 = EDGE_CURVE ( 'NONE', #76, #13, #151, .T. ) ;
#75 = MANIFOLD_SOLID_BREP ( 'Boss-Extrude1', #63 ) ;
#76 = VERTEX_POINT ( 'NONE', #21 ) ;
#77 = CC_DESIGN_APPROVAL ( #153, ( #120 ) ) ;
#78 = ORIENTED_EDGE ( 'NONE', *, *, #26, .F. ) ;
#79 = EDGE_LOOP ( 'NONE', ( #37, #160 ) ) ;
#80 = APPROVAL_ROLE ( '' ) ;
#81 = APPROVAL_PERSON_ORGANIZATION ( #152, #147, #80 ) ;
#82 = PLANE ( 'NONE',  #20 ) ;
#83 = DIRECTION ( 'NONE',  ( 1.000000000000000000, 0.000000000000000000, 0.000000000000000000 ) ) ;
#84 = ADVANCED_FACE ( 'NONE', ( #166 ), #86, .F. ) ;
#85 = FACE_OUTER_BOUND ( 'NONE', #38, .T. ) ;
#86 = PLANE ( 'NONE',  #70 ) ;
#87 = SHAPE_DEFINITION_REPRESENTATION ( #170, #10 ) ;
#88 = PERSON_AND_ORGANIZATION ( #116, #139 ) ;
#89 = AXIS2_PLACEMENT_3D ( 'NONE', #150, #27, #158 ) ;
#90 = DATE_TIME_ROLE ( 'creation_date' ) ;
#91 = PERSON_AND_ORGANIZATION_ROLE ( 'creator' ) ;
#92 = CC_DESIGN_PERSON_AND_ORGANIZATION_ASSIGNMENT ( #119, #107, ( #120 ) ) ;
#93 = DATE_AND_TIME ( #6, #124 ) ;
#94 = DIRECTION ( 'NONE',  ( 0.000000000000000000, 0.000000000000000000, 1.000000000000000000 ) ) ;
#95 = LOCAL_TIME ( 15, 18, 35.00000000000000000, #34 ) ;
#96 = PRODUCT_DEFINITION ( 'UNKNOWN', '', #120, #28 ) ;
#97 = AXIS2_PLACEMENT_3D ( 'NONE', #111, #94, #173 ) ;
#98 = DIRECTION ( 'NONE',  ( 0.000000000000000000, 0.000000000000000000, 1.000000000000000000 ) ) ;
#99 = APPROVAL ( #125, 'UNSPECIFIED' ) ;
#100 = UNCERTAINTY_MEASURE_WITH_UNIT (LENGTH_MEASURE( 1.000000000000000082E-05 ), #103, 'distance_accuracy_value', 'NONE');
#101 = DIRECTION ( 'NONE',  ( -0.000000000000000000, -0.000000000000000000, -1.000000000000000000 ) ) ;
#102 = FACE_OUTER_BOUND ( 'NONE', #79, .T. ) ;
#103 =( LENGTH_UNIT ( ) NAMED_UNIT ( * ) SI_UNIT ( .MILLI., .METRE. ) );
#104 = DIRECTION ( 'NONE',  ( 0.000000000000000000, 0.000000000000000000, 1.000000000000000000 ) ) ;
#105 = SECURITY_CLASSIFICATION ( '', '', #60 ) ;
#106 = APPROVAL_DATE_TIME ( #93, #147 ) ;
#107 = PERSON_AND_ORGANIZATION_ROLE ( 'design_supplier' ) ;
#108 = CALENDAR_DATE ( 2022, 15, 3 ) ;
#109 = APPROVAL_PERSON_ORGANIZATION ( #135, #99, #49 ) ;
#110 = CC_DESIGN_PERSON_AND_ORGANIZATION_ASSIGNMENT ( #154, #54, ( #61 ) ) ;
#111 = CARTESIAN_POINT ( 'NONE',  ( 0.000000000000000000, 0.000000000000000000, 0.5000000000000000000 ) ) ;
#112 = VERTEX_POINT ( 'NONE', #128 ) ;
#113 = ORIENTED_EDGE ( 'NONE', *, *, #5, .F. ) ;
#114 = ADVANCED_FACE ( 'NONE', ( #102 ), #82, .T. ) ;
#115 = DIRECTION ( 'NONE',  ( -0.000000000000000000, -0.000000000000000000, -1.000000000000000000 ) ) ;
#116 = PERSON ( 'UNSPECIFIED', 'UNSPECIFIED', 'UNSPECIFIED', ('UNSPECIFIED'), ('UNSPECIFIED'), ('UNSPECIFIED') ) ;
#117 = DIRECTION ( 'NONE',  ( -1.000000000000000000, 0.000000000000000000, 0.000000000000000000 ) ) ;
#118 = DIRECTION ( 'NONE',  ( -0.000000000000000000, -0.000000000000000000, -1.000000000000000000 ) ) ;
#119 = PERSON_AND_ORGANIZATION ( #116, #139 ) ;
#120 = PRODUCT_DEFINITION_FORMATION_WITH_SPECIFIED_SOURCE ( 'ANY', '', #61, .NOT_KNOWN. ) ;
#121 = PERSON_AND_ORGANIZATION ( #116, #139 ) ;
#122 = APPROVAL_ROLE ( '' ) ;
#123 = COORDINATED_UNIVERSAL_TIME_OFFSET ( 5, 0, .BEHIND. ) ;
#124 = LOCAL_TIME ( 15, 18, 35.00000000000000000, #68 ) ;
#125 = APPROVAL_STATUS ( 'not_yet_approved' ) ;
#126 = APPLICATION_CONTEXT ( 'configuration controlled 3d designs of mechanical parts and assemblies' ) ;
#127 = DIRECTION ( 'NONE',  ( 1.000000000000000000, 0.000000000000000000, 0.000000000000000000 ) ) ;
#128 = CARTESIAN_POINT ( 'NONE',  ( 6.349999999999999645, 7.776507174585692163E-16, 0.000000000000000000 ) ) ;
#129 = CYLINDRICAL_SURFACE ( 'NONE', #64, 6.349999999999999645 ) ;
#130 = DIRECTION ( 'NONE',  ( 0.000000000000000000, 0.000000000000000000, 1.000000000000000000 ) ) ;
#131 = CC_DESIGN_APPROVAL ( #99, ( #105 ) ) ;
#132 = CARTESIAN_POINT ( 'NONE',  ( 0.000000000000000000, 0.000000000000000000, 0.000000000000000000 ) ) ;
#133 = DATE_AND_TIME ( #32, #95 ) ;
#134 = CC_DESIGN_PERSON_AND_ORGANIZATION_ASSIGNMENT ( #121, #91, ( #120 ) ) ;
#135 = PERSON_AND_ORGANIZATION ( #116, #139 ) ;
#136 = PERSON_AND_ORGANIZATION ( #116, #139 ) ;
#137 = EDGE_CURVE ( 'NONE', #13, #112, #9, .T. ) ;
#138 = PERSON_AND_ORGANIZATION ( #116, #139 ) ;
#139 = ORGANIZATION ( 'UNSPECIFIED', 'UNSPECIFIED', '' ) ;
#140 = ORIENTED_EDGE ( 'NONE', *, *, #137, .F. ) ;
#141 = DIRECTION ( 'NONE',  ( -0.000000000000000000, -0.000000000000000000, -1.000000000000000000 ) ) ;
#142 = APPLICATION_PROTOCOL_DEFINITION ( 'international standard', 'config_control_design', 1994, #126 ) ;
#143 = CYLINDRICAL_SURFACE ( 'NONE', #62, 6.349999999999999645 ) ;
#144 = VECTOR ( 'NONE', #141, 1000.000000000000000 ) ;
#145 = CARTESIAN_POINT ( 'NONE',  ( 6.349999999999999645, 7.776507174585692163E-16, 0.5000000000000000000 ) ) ;
#146 = DATE_AND_TIME ( #108, #7 ) ;
#147 = APPROVAL ( #17, 'UNSPECIFIED' ) ;
#148 = LOCAL_TIME ( 15, 18, 35.00000000000000000, #22 ) ;
#149 = VECTOR ( 'NONE', #118, 1000.000000000000000 ) ;
#150 = CARTESIAN_POINT ( 'NONE',  ( 0.000000000000000000, 0.000000000000000000, 0.000000000000000000 ) ) ;
#151 = LINE ( 'NONE', #43, #144 ) ;
#152 = PERSON_AND_ORGANIZATION ( #116, #139 ) ;
#153 = APPROVAL ( #44, 'UNSPECIFIED' ) ;
#154 = PERSON_AND_ORGANIZATION ( #116, #139 ) ;
#155 = DATE_AND_TIME ( #33, #171 ) ;
#156 = DATE_AND_TIME ( #36, #148 ) ;
#157 = APPROVAL_DATE_TIME ( #133, #99 ) ;
#158 = DIRECTION ( 'NONE',  ( 1.000000000000000000, 0.000000000000000000, 0.000000000000000000 ) ) ;
#159 = CARTESIAN_POINT ( 'NONE',  ( -6.349999999999999645, 0.000000000000000000, 0.000000000000000000 ) ) ;
#160 = ORIENTED_EDGE ( 'NONE', *, *, #35, .T. ) ;
#161 = AXIS2_PLACEMENT_3D ( 'NONE', #16, #56, #127 ) ;
#162 = CARTESIAN_POINT ( 'NONE',  ( 0.000000000000000000, 0.000000000000000000, 0.000000000000000000 ) ) ;
#163 = DIRECTION ( 'NONE',  ( -1.000000000000000000, 0.000000000000000000, 0.000000000000000000 ) ) ;
#164 = CIRCLE ( 'NONE', #89, 6.349999999999999645 ) ;
#165 = APPROVAL_PERSON_ORGANIZATION ( #88, #153, #122 ) ;
#166 = FACE_OUTER_BOUND ( 'NONE', #53, .T. ) ;
#167 = EDGE_CURVE ( 'NONE', #51, #112, #2, .T. ) ;
#168 = DATE_TIME_ROLE ( 'classification_date' ) ;
#169 = CIRCLE ( 'NONE', #97, 6.349999999999999645 ) ;
#170 = PRODUCT_DEFINITION_SHAPE ( 'NONE', 'NONE',  #96 ) ;
#171 = LOCAL_TIME ( 15, 18, 35.00000000000000000, #71 ) ;
#172 = PERSON_AND_ORGANIZATION_ROLE ( 'classification_officer' ) ;
#173 = DIRECTION ( 'NONE',  ( 1.000000000000000000, 0.000000000000000000, 0.000000000000000000 ) ) ;
#174 = ORIENTED_EDGE ( 'NONE', *, *, #74, .T. ) ;
#175 = EDGE_LOOP ( 'NONE', ( #14, #113, #174, #41 ) ) ;
ENDSEC;
END-ISO-10303-21;
