ISO-10303-21;
HEADER;
FILE_DESCRIPTION (( 'STEP AP203' ),
    '1' );
FILE_NAME ('Web Model 39233_39233.step',
    '2018-07-25T17:09:59',
    ( '' ),
    ( '' ),
    'SwSTEP 2.0',
    'SolidWorks 2016',
    '' );
FILE_SCHEMA (( 'CONFIG_CONTROL_DESIGN' ));
ENDSEC;

DATA;
#1 = PERSON_AND_ORGANIZATION ( #74, #123 ) ;
#2 = EDGE_CURVE ( 'NONE', #100, #147, #132, .T. ) ;
#3 = DIRECTION ( 'NONE',  ( 0.0000000000000000000, 0.0000000000000000000, 1.000000000000000000 ) ) ;
#4 = PLANE ( 'NONE',  #16 ) ;
#5 = FACE_OUTER_BOUND ( 'NONE', #35, .T. ) ;
#6 = APPLICATION_CONTEXT ( 'configuration controlled 3d designs of mechanical parts and assemblies' ) ;
#7 = CARTESIAN_POINT ( 'NONE',  ( 0.0000000000000000000, 0.0000000000000000000, -1.149999999999999900 ) ) ;
#8 = PERSON_AND_ORGANIZATION_ROLE ( 'creator' ) ;
#9 = CC_DESIGN_PERSON_AND_ORGANIZATION_ASSIGNMENT ( #90, #139, ( #146 ) ) ;
#10 = ORIENTED_EDGE ( 'NONE', *, *, #163, .F. ) ;
#11 = CC_DESIGN_APPROVAL ( #121, ( #45 ) ) ;
#12 = EDGE_CURVE ( 'NONE', #100, #105, #54, .T. ) ;
#13 = ORIENTED_EDGE ( 'NONE', *, *, #112, .F. ) ;
#14 = CC_DESIGN_PERSON_AND_ORGANIZATION_ASSIGNMENT ( #1, #8, ( #45 ) ) ;
#15 = APPROVAL_PERSON_ORGANIZATION ( #53, #121, #116 ) ;
#16 = AXIS2_PLACEMENT_3D ( 'NONE', #93, #59, #42 ) ;
#17 = ADVANCED_FACE ( 'NONE', ( #27 ), #150, .T. ) ;
#18 = SHAPE_DEFINITION_REPRESENTATION ( #37, #26 ) ;
#19 = CARTESIAN_POINT ( 'NONE',  ( 0.0000000000000000000, 0.0000000000000000000, 1.149999999999999900 ) ) ;
#20 = AXIS2_PLACEMENT_3D ( 'NONE', #22, #125, #48 ) ;
#21 = FACE_OUTER_BOUND ( 'NONE', #138, .T. ) ;
#22 = CARTESIAN_POINT ( 'NONE',  ( 0.0000000000000000000, 0.0000000000000000000, 1.149999999999999900 ) ) ;
#23 = PRODUCT_RELATED_PRODUCT_CATEGORY ( 'detail', '', ( #89 ) ) ;
#24 = MECHANICAL_CONTEXT ( 'NONE', #81, 'mechanical' ) ;
#25 = APPROVAL_ROLE ( '' ) ;
#26 = ADVANCED_BREP_SHAPE_REPRESENTATION ( 'Web Model 39233_39233', ( #58, #91 ), #40 ) ;
#27 = FACE_OUTER_BOUND ( 'NONE', #151, .T. ) ;
#28 = COORDINATED_UNIVERSAL_TIME_OFFSET ( 5, 0, .BEHIND. ) ;
#29 = DIRECTION ( 'NONE',  ( 1.000000000000000000, 0.0000000000000000000, -0.0000000000000000000 ) ) ;
#30 = EDGE_LOOP ( 'NONE', ( #124, #83, #72, #175 ) ) ;
#31 = CARTESIAN_POINT ( 'NONE',  ( 0.0000000000000000000, 0.0000000000000000000, 0.0000000000000000000 ) ) ;
#32 = PERSON_AND_ORGANIZATION_ROLE ( 'design_supplier' ) ;
#33 = UNCERTAINTY_MEASURE_WITH_UNIT (LENGTH_MEASURE( 1.000000000000000100E-005 ), #155, 'distance_accuracy_value', 'NONE');
#34 = CC_DESIGN_PERSON_AND_ORGANIZATION_ASSIGNMENT ( #117, #32, ( #45 ) ) ;
#35 = EDGE_LOOP ( 'NONE', ( #13, #10 ) ) ;
#36 = CC_DESIGN_SECURITY_CLASSIFICATION ( #167, ( #45 ) ) ;
#37 = PRODUCT_DEFINITION_SHAPE ( 'NONE', 'NONE',  #146 ) ;
#38 = LINE ( 'NONE', #102, #111 ) ;
#39 = CC_DESIGN_DATE_AND_TIME_ASSIGNMENT ( #133, #171, ( #167 ) ) ;
#40 =( GEOMETRIC_REPRESENTATION_CONTEXT ( 3 ) GLOBAL_UNCERTAINTY_ASSIGNED_CONTEXT ( ( #33 ) ) GLOBAL_UNIT_ASSIGNED_CONTEXT ( ( #155, #80, #129 ) ) REPRESENTATION_CONTEXT ( 'NONE', 'WORKASPACE' ) );
#41 = ADVANCED_FACE ( 'NONE', ( #5 ), #4, .F. ) ;
#42 = DIRECTION ( 'NONE',  ( 1.000000000000000000, 0.0000000000000000000, -0.0000000000000000000 ) ) ;
#43 = APPROVAL_PERSON_ORGANIZATION ( #68, #55, #109 ) ;
#44 = DIRECTION ( 'NONE',  ( 1.000000000000000000, 0.0000000000000000000, 0.0000000000000000000 ) ) ;
#45 = PRODUCT_DEFINITION_FORMATION_WITH_SPECIFIED_SOURCE ( 'ANY', '', #89, .NOT_KNOWN. ) ;
#46 = DIRECTION ( 'NONE',  ( -0.0000000000000000000, -0.0000000000000000000, -1.000000000000000000 ) ) ;
#47 = ORIENTED_EDGE ( 'NONE', *, *, #12, .T. ) ;
#48 = DIRECTION ( 'NONE',  ( -1.000000000000000000, 0.0000000000000000000, 0.0000000000000000000 ) ) ;
#49 = COORDINATED_UNIVERSAL_TIME_OFFSET ( 5, 0, .BEHIND. ) ;
#50 = EDGE_CURVE ( 'NONE', #105, #92, #38, .T. ) ;
#51 = APPLICATION_PROTOCOL_DEFINITION ( 'international standard', 'config_control_design', 1994, #81 ) ;
#52 = CIRCLE ( 'NONE', #170, 12.69999999999999600 ) ;
#53 = PERSON_AND_ORGANIZATION ( #74, #123 ) ;
#54 = CIRCLE ( 'NONE', #70, 12.69999999999999600 ) ;
#55 = APPROVAL ( #97, 'UNSPECIFIED' ) ;
#56 = CARTESIAN_POINT ( 'NONE',  ( -12.69999999999999600, 0.0000000000000000000, 1.149999999999999900 ) ) ;
#57 = CC_DESIGN_PERSON_AND_ORGANIZATION_ASSIGNMENT ( #162, #82, ( #89 ) ) ;
#58 = MANIFOLD_SOLID_BREP ( 'Boss-Extrude1', #143 ) ;
#59 = DIRECTION ( 'NONE',  ( 0.0000000000000000000, 0.0000000000000000000, 1.000000000000000000 ) ) ;
#60 = ORIENTED_EDGE ( 'NONE', *, *, #112, .T. ) ;
#61 = LOCAL_TIME ( 13, 9, 59.00000000000000000, #28 ) ;
#62 = CYLINDRICAL_SURFACE ( 'NONE', #20, 12.69999999999999600 ) ;
#63 = DIRECTION ( 'NONE',  ( 0.0000000000000000000, 0.0000000000000000000, 1.000000000000000000 ) ) ;
#64 = PERSON_AND_ORGANIZATION ( #74, #123 ) ;
#65 = DIRECTION ( 'NONE',  ( 1.000000000000000000, 0.0000000000000000000, 0.0000000000000000000 ) ) ;
#66 = CARTESIAN_POINT ( 'NONE',  ( 0.0000000000000000000, 0.0000000000000000000, 1.149999999999999900 ) ) ;
#67 = LOCAL_TIME ( 13, 9, 59.00000000000000000, #86 ) ;
#68 = PERSON_AND_ORGANIZATION ( #74, #123 ) ;
#69 = DATE_AND_TIME ( #134, #159 ) ;
#70 = AXIS2_PLACEMENT_3D ( 'NONE', #19, #3, #44 ) ;
#71 = CC_DESIGN_APPROVAL ( #55, ( #167 ) ) ;
#72 = ORIENTED_EDGE ( 'NONE', *, *, #163, .T. ) ;
#73 = ADVANCED_FACE ( 'NONE', ( #160 ), #110, .T. ) ;
#74 = PERSON ( 'UNSPECIFIED', 'UNSPECIFIED', 'UNSPECIFIED', ('UNSPECIFIED'), ('UNSPECIFIED'), ('UNSPECIFIED') ) ;
#75 = CARTESIAN_POINT ( 'NONE',  ( 0.0000000000000000000, 0.0000000000000000000, 1.149999999999999900 ) ) ;
#76 = AXIS2_PLACEMENT_3D ( 'NONE', #75, #101, #29 ) ;
#77 = DIRECTION ( 'NONE',  ( -1.000000000000000000, 0.0000000000000000000, 0.0000000000000000000 ) ) ;
#78 = DIRECTION ( 'NONE',  ( 1.000000000000000000, 0.0000000000000000000, 0.0000000000000000000 ) ) ;
#79 = CIRCLE ( 'NONE', #127, 12.69999999999999600 ) ;
#80 =( NAMED_UNIT ( * ) PLANE_ANGLE_UNIT ( ) SI_UNIT ( $, .RADIAN. ) );
#81 = APPLICATION_CONTEXT ( 'configuration controlled 3d designs of mechanical parts and assemblies' ) ;
#82 = PERSON_AND_ORGANIZATION_ROLE ( 'design_owner' ) ;
#83 = ORIENTED_EDGE ( 'NONE', *, *, #50, .T. ) ;
#84 = DATE_AND_TIME ( #152, #135 ) ;
#85 = ADVANCED_FACE ( 'NONE', ( #21 ), #62, .T. ) ;
#86 = COORDINATED_UNIVERSAL_TIME_OFFSET ( 5, 0, .BEHIND. ) ;
#87 = AXIS2_PLACEMENT_3D ( 'NONE', #113, #136, #77 ) ;
#88 = ORIENTED_EDGE ( 'NONE', *, *, #12, .F. ) ;
#89 = PRODUCT ( 'Web Model 39233_39233', 'Web Model 39233_39233', '', ( #24 ) ) ;
#90 = PERSON_AND_ORGANIZATION ( #74, #123 ) ;
#91 = AXIS2_PLACEMENT_3D ( 'NONE', #31, #63, #65 ) ;
#92 = VERTEX_POINT ( 'NONE', #94 ) ;
#93 = CARTESIAN_POINT ( 'NONE',  ( 0.0000000000000000000, 0.0000000000000000000, -1.149999999999999900 ) ) ;
#94 = CARTESIAN_POINT ( 'NONE',  ( 12.69999999999999600, 1.555301434917138000E-015, -1.149999999999999900 ) ) ;
#95 = DIRECTION ( 'NONE',  ( 1.000000000000000000, 0.0000000000000000000, 0.0000000000000000000 ) ) ;
#96 = DATE_TIME_ROLE ( 'creation_date' ) ;
#97 = APPROVAL_STATUS ( 'not_yet_approved' ) ;
#98 = ORIENTED_EDGE ( 'NONE', *, *, #50, .F. ) ;
#99 = DATE_AND_TIME ( #161, #130 ) ;
#100 = VERTEX_POINT ( 'NONE', #154 ) ;
#101 = DIRECTION ( 'NONE',  ( 0.0000000000000000000, 0.0000000000000000000, 1.000000000000000000 ) ) ;
#102 = CARTESIAN_POINT ( 'NONE',  ( 12.69999999999999600, 1.555301434917138000E-015, 1.149999999999999900 ) ) ;
#103 = CC_DESIGN_DATE_AND_TIME_ASSIGNMENT ( #99, #96, ( #146 ) ) ;
#104 = CARTESIAN_POINT ( 'NONE',  ( 12.69999999999999600, 1.555301434917138000E-015, 1.149999999999999900 ) ) ;
#105 = VERTEX_POINT ( 'NONE', #104 ) ;
#106 = DIRECTION ( 'NONE',  ( 0.0000000000000000000, 0.0000000000000000000, 1.000000000000000000 ) ) ;
#107 = APPLICATION_PROTOCOL_DEFINITION ( 'international standard', 'config_control_design', 1994, #6 ) ;
#108 = SECURITY_CLASSIFICATION_LEVEL ( 'unclassified' ) ;
#109 = APPROVAL_ROLE ( '' ) ;
#110 = CYLINDRICAL_SURFACE ( 'NONE', #87, 12.69999999999999600 ) ;
#111 = VECTOR ( 'NONE', #46, 1000.000000000000000 ) ;
#112 = EDGE_CURVE ( 'NONE', #147, #92, #79, .T. ) ;
#113 = CARTESIAN_POINT ( 'NONE',  ( 0.0000000000000000000, 0.0000000000000000000, 1.149999999999999900 ) ) ;
#114 = VECTOR ( 'NONE', #148, 1000.000000000000000 ) ;
#115 = APPROVAL_DATE_TIME ( #158, #55 ) ;
#116 = APPROVAL_ROLE ( '' ) ;
#117 = PERSON_AND_ORGANIZATION ( #74, #123 ) ;
#118 = PERSON_AND_ORGANIZATION_ROLE ( 'classification_officer' ) ;
#119 = DESIGN_CONTEXT ( 'detailed design', #6, 'design' ) ;
#120 = CC_DESIGN_PERSON_AND_ORGANIZATION_ASSIGNMENT ( #149, #118, ( #167 ) ) ;
#121 = APPROVAL ( #137, 'UNSPECIFIED' ) ;
#122 = CIRCLE ( 'NONE', #144, 12.69999999999999600 ) ;
#123 = ORGANIZATION ( 'UNSPECIFIED', 'UNSPECIFIED', '' ) ;
#124 = ORIENTED_EDGE ( 'NONE', *, *, #145, .F. ) ;
#125 = DIRECTION ( 'NONE',  ( -0.0000000000000000000, -0.0000000000000000000, -1.000000000000000000 ) ) ;
#126 = CARTESIAN_POINT ( 'NONE',  ( -12.69999999999999600, 0.0000000000000000000, -1.149999999999999900 ) ) ;
#127 = AXIS2_PLACEMENT_3D ( 'NONE', #7, #141, #142 ) ;
#128 = APPROVAL_DATE_TIME ( #69, #156 ) ;
#129 =( NAMED_UNIT ( * ) SI_UNIT ( $, .STERADIAN. ) SOLID_ANGLE_UNIT ( ) );
#130 = LOCAL_TIME ( 13, 9, 59.00000000000000000, #166 ) ;
#131 = APPROVAL_DATE_TIME ( #84, #121 ) ;
#132 = LINE ( 'NONE', #56, #114 ) ;
#133 = DATE_AND_TIME ( #165, #67 ) ;
#134 = CALENDAR_DATE ( 2018, 25, 7 ) ;
#135 = LOCAL_TIME ( 13, 9, 59.00000000000000000, #172 ) ;
#136 = DIRECTION ( 'NONE',  ( -0.0000000000000000000, -0.0000000000000000000, -1.000000000000000000 ) ) ;
#137 = APPROVAL_STATUS ( 'not_yet_approved' ) ;
#138 = EDGE_LOOP ( 'NONE', ( #98, #88, #173, #60 ) ) ;
#139 = PERSON_AND_ORGANIZATION_ROLE ( 'creator' ) ;
#140 = CALENDAR_DATE ( 2018, 25, 7 ) ;
#141 = DIRECTION ( 'NONE',  ( 0.0000000000000000000, 0.0000000000000000000, 1.000000000000000000 ) ) ;
#142 = DIRECTION ( 'NONE',  ( 1.000000000000000000, 0.0000000000000000000, 0.0000000000000000000 ) ) ;
#143 = CLOSED_SHELL ( 'NONE', ( #73, #85, #17, #41 ) ) ;
#144 = AXIS2_PLACEMENT_3D ( 'NONE', #66, #153, #78 ) ;
#145 = EDGE_CURVE ( 'NONE', #105, #100, #122, .T. ) ;
#146 = PRODUCT_DEFINITION ( 'UNKNOWN', '', #45, #119 ) ;
#147 = VERTEX_POINT ( 'NONE', #126 ) ;
#148 = DIRECTION ( 'NONE',  ( -0.0000000000000000000, -0.0000000000000000000, -1.000000000000000000 ) ) ;
#149 = PERSON_AND_ORGANIZATION ( #74, #123 ) ;
#150 = PLANE ( 'NONE',  #76 ) ;
#151 = EDGE_LOOP ( 'NONE', ( #47, #157 ) ) ;
#152 = CALENDAR_DATE ( 2018, 25, 7 ) ;
#153 = DIRECTION ( 'NONE',  ( 0.0000000000000000000, 0.0000000000000000000, 1.000000000000000000 ) ) ;
#154 = CARTESIAN_POINT ( 'NONE',  ( -12.69999999999999600, 0.0000000000000000000, 1.149999999999999900 ) ) ;
#155 =( LENGTH_UNIT ( ) NAMED_UNIT ( * ) SI_UNIT ( .MILLI., .METRE. ) );
#156 = APPROVAL ( #169, 'UNSPECIFIED' ) ;
#157 = ORIENTED_EDGE ( 'NONE', *, *, #145, .T. ) ;
#158 = DATE_AND_TIME ( #140, #61 ) ;
#159 = LOCAL_TIME ( 13, 9, 59.00000000000000000, #49 ) ;
#160 = FACE_OUTER_BOUND ( 'NONE', #30, .T. ) ;
#161 = CALENDAR_DATE ( 2018, 25, 7 ) ;
#162 = PERSON_AND_ORGANIZATION ( #74, #123 ) ;
#163 = EDGE_CURVE ( 'NONE', #92, #147, #52, .T. ) ;
#164 = CC_DESIGN_APPROVAL ( #156, ( #146 ) ) ;
#165 = CALENDAR_DATE ( 2018, 25, 7 ) ;
#166 = COORDINATED_UNIVERSAL_TIME_OFFSET ( 5, 0, .BEHIND. ) ;
#167 = SECURITY_CLASSIFICATION ( '', '', #108 ) ;
#168 = CARTESIAN_POINT ( 'NONE',  ( 0.0000000000000000000, 0.0000000000000000000, -1.149999999999999900 ) ) ;
#169 = APPROVAL_STATUS ( 'not_yet_approved' ) ;
#170 = AXIS2_PLACEMENT_3D ( 'NONE', #168, #106, #95 ) ;
#171 = DATE_TIME_ROLE ( 'classification_date' ) ;
#172 = COORDINATED_UNIVERSAL_TIME_OFFSET ( 5, 0, .BEHIND. ) ;
#173 = ORIENTED_EDGE ( 'NONE', *, *, #2, .T. ) ;
#174 = APPROVAL_PERSON_ORGANIZATION ( #64, #156, #25 ) ;
#175 = ORIENTED_EDGE ( 'NONE', *, *, #2, .F. ) ;
ENDSEC;
END-ISO-10303-21;
