ISO-10303-21;
HEADER;
FILE_DESCRIPTION (( 'STEP AP203' ),
    '1' );
FILE_NAME ('TTN099148-E0W.STEP',
    '2019-12-09T20:56:35',
    ( '' ),
    ( '' ),
    'SwSTEP 2.0',
    'SolidWorks 2018',
    '' );
FILE_SCHEMA (( 'CONFIG_CONTROL_DESIGN' ));
ENDSEC;

DATA;
#1 = DATE_AND_TIME ( #235, #13 ) ;
#2 = ORIENTED_EDGE ( 'NONE', *, *, #226, .T. ) ;
#3 = ORIENTED_EDGE ( 'NONE', *, *, #299, .F. ) ;
#4 = APPROVAL_ROLE ( '' ) ;
#5 = CIRCLE ( 'NONE', #149, 35.62800000000000011 ) ;
#6 = ORIENTED_EDGE ( 'NONE', *, *, #89, .T. ) ;
#7 = AXIS2_PLACEMENT_3D ( 'NONE', #36, #81, #217 ) ;
#8 = VERTEX_POINT ( 'NONE', #228 ) ;
#9 = PERSON_AND_ORGANIZATION ( #278, #277 ) ;
#10 = AXIS2_PLACEMENT_3D ( 'NONE', #185, #34, #58 ) ;
#11 = ADVANCED_FACE ( 'NONE', ( #16 ), #243, .T. ) ;
#12 = PRODUCT_DEFINITION_SHAPE ( 'NONE', 'NONE',  #258 ) ;
#13 = LOCAL_TIME ( 15, 56, 35.00000000000000000, #239 ) ;
#14 = CARTESIAN_POINT ( 'NONE',  ( 0.0000000000000000000, 12.70000000000000107, -1.970199472476253710 ) ) ;
#15 = DIRECTION ( 'NONE',  ( 0.0000000000000000000, 1.000000000000000000, 3.073328992872296367E-16 ) ) ;
#16 = FACE_OUTER_BOUND ( 'NONE', #51, .T. ) ;
#17 = AXIS2_PLACEMENT_3D ( 'NONE', #105, #183, #112 ) ;
#18 = CONICAL_SURFACE ( 'NONE', #131, 12.69999999999999929, 0.9676369370377523316 ) ;
#19 = DIRECTION ( 'NONE',  ( -0.0000000000000000000, 3.061515884555891870E-16, -1.000000000000000000 ) ) ;
#20 = VECTOR ( 'NONE', #49, 1000.000000000000114 ) ;
#21 = ORIENTED_EDGE ( 'NONE', *, *, #286, .T. ) ;
#22 = APPLICATION_CONTEXT ( 'configuration controlled 3d designs of mechanical parts and assemblies' ) ;
#23 = FACE_OUTER_BOUND ( 'NONE', #134, .T. ) ;
#24 = VERTEX_POINT ( 'NONE', #28 ) ;
#25 = CARTESIAN_POINT ( 'NONE',  ( 0.0000000000000000000, 6.508247152130970985E-16, 1.970199472476226177 ) ) ;
#26 = CARTESIAN_POINT ( 'NONE',  ( 1.555301434917138433E-15, -12.69999999999999929, 1.970199472476222402 ) ) ;
#27 = CC_DESIGN_APPROVAL ( #213, ( #139 ) ) ;
#28 = CARTESIAN_POINT ( 'NONE',  ( 1.532348422929558852E-15, -12.51257443367703104, 2.099295389527958466 ) ) ;
#29 = CALENDAR_DATE ( 2019, 9, 12 ) ;
#30 = DIRECTION ( 'NONE',  ( 0.0000000000000000000, 0.0000000000000000000, 1.000000000000000000 ) ) ;
#31 = EDGE_CURVE ( 'NONE', #24, #33, #116, .T. ) ;
#32 = CIRCLE ( 'NONE', #207, 12.69999999999999929 ) ;
#33 = VERTEX_POINT ( 'NONE', #26 ) ;
#34 = DIRECTION ( 'NONE',  ( 0.0000000000000000000, -3.061515884555942652E-16, 1.000000000000000000 ) ) ;
#35 = DIRECTION ( 'NONE',  ( 1.000000000000000000, 1.224646799147353207E-16, 3.749275628560213616E-32 ) ) ;
#36 = CARTESIAN_POINT ( 'NONE',  ( 0.0000000000000000000, 1.918414429050164078E-15, -2.170199472476249447 ) ) ;
#37 = APPROVAL ( #220, 'UNSPECIFIED' ) ;
#38 = DIRECTION ( 'NONE',  ( 0.0000000000000000000, -3.061515884555891870E-16, 1.000000000000000000 ) ) ;
#39 = AXIS2_PLACEMENT_3D ( 'NONE', #114, #38, #119 ) ;
#40 = FACE_OUTER_BOUND ( 'NONE', #247, .T. ) ;
#41 = EDGE_LOOP ( 'NONE', ( #216, #158, #98, #262 ) ) ;
#42 = SECURITY_CLASSIFICATION_LEVEL ( 'unclassified' ) ;
#43 = PERSON_AND_ORGANIZATION ( #278, #277 ) ;
#44 = EDGE_CURVE ( 'NONE', #93, #190, #106, .T. ) ;
#45 = APPROVAL_STATUS ( 'not_yet_approved' ) ;
#46 = VERTEX_POINT ( 'NONE', #127 ) ;
#47 = EDGE_CURVE ( 'NONE', #93, #8, #215, .T. ) ;
#48 = APPROVAL_PERSON_ORGANIZATION ( #225, #213, #264 ) ;
#49 = DIRECTION ( 'NONE',  ( 8.659560562354930393E-17, 0.7071067811865471286, 0.7071067811865479058 ) ) ;
#50 = MANIFOLD_SOLID_BREP ( 'TTN099149-1-solid1', #66 ) ;
#51 = EDGE_LOOP ( 'NONE', ( #193, #274, #96, #55 ) ) ;
#52 = CC_DESIGN_DATE_AND_TIME_ASSIGNMENT ( #110, #167, ( #258 ) ) ;
#53 = CALENDAR_DATE ( 2019, 9, 12 ) ;
#54 = DIRECTION ( 'NONE',  ( 0.0000000000000000000, -0.7071067811865475727, 0.7071067811865474617 ) ) ;
#55 = ORIENTED_EDGE ( 'NONE', *, *, #89, .F. ) ;
#56 = CIRCLE ( 'NONE', #39, 12.51257443367702926 ) ;
#57 = DIRECTION ( 'NONE',  ( -0.0000000000000000000, 3.061515884555891870E-16, -1.000000000000000000 ) ) ;
#58 = DIRECTION ( 'NONE',  ( 0.0000000000000000000, 1.000000000000000000, 3.073328992872296367E-16 ) ) ;
#59 = DIRECTION ( 'NONE',  ( 0.0000000000000000000, -3.061515884555942652E-16, 1.000000000000000000 ) ) ;
#60 = ORIENTED_EDGE ( 'NONE', *, *, #237, .F. ) ;
#61 = DIRECTION ( 'NONE',  ( -0.0000000000000000000, 3.061515884555891870E-16, -1.000000000000000000 ) ) ;
#62 = PRODUCT ( 'TTN099148-E0W', 'TTN099148-E0W', '', ( #198 ) ) ;
#63 = DIRECTION ( 'NONE',  ( -0.0000000000000000000, 3.061515884555943146E-16, -1.000000000000000000 ) ) ;
#64 = ORIENTED_EDGE ( 'NONE', *, *, #75, .F. ) ;
#65 = LINE ( 'NONE', #234, #279 ) ;
#66 = CLOSED_SHELL ( 'NONE', ( #130, #103, #100, #11, #126, #151, #76, #177, #211 ) ) ;
#67 = DIRECTION ( 'NONE',  ( 0.0000000000000000000, 1.000000000000000000, 3.122502256758250798E-16 ) ) ;
#68 = APPLICATION_PROTOCOL_DEFINITION ( 'international standard', 'config_control_design', 1994, #22 ) ;
#69 = CIRCLE ( 'NONE', #174, 12.50000000000000711 ) ;
#70 = PERSON_AND_ORGANIZATION ( #278, #277 ) ;
#71 = AXIS2_PLACEMENT_3D ( 'NONE', #230, #204, #101 ) ;
#72 = PERSON_AND_ORGANIZATION_ROLE ( 'design_supplier' ) ;
#73 = FACE_OUTER_BOUND ( 'NONE', #118, .T. ) ;
#74 = ORIENTED_EDGE ( 'NONE', *, *, #270, .F. ) ;
#75 = EDGE_CURVE ( 'NONE', #33, #46, #155, .T. ) ;
#76 = ADVANCED_FACE ( 'NONE', ( #40 ), #289, .F. ) ;
#77 = VERTEX_POINT ( 'NONE', #180 ) ;
#78 = DIRECTION ( 'NONE',  ( -0.0000000000000000000, 3.061515884555943146E-16, -1.000000000000000000 ) ) ;
#79 = AXIS2_PLACEMENT_3D ( 'NONE', #194, #88, #284 ) ;
#80 = DIRECTION ( 'NONE',  ( 0.0000000000000000000, 1.000000000000000000, 3.073328992872296367E-16 ) ) ;
#81 = DIRECTION ( 'NONE',  ( -0.0000000000000000000, 3.061515884555943146E-16, -1.000000000000000000 ) ) ;
#82 = EDGE_CURVE ( 'NONE', #33, #77, #32, .T. ) ;
#83 = DIRECTION ( 'NONE',  ( -1.000000000000000000, 0.0000000000000000000, 0.0000000000000000000 ) ) ;
#84 = DIRECTION ( 'NONE',  ( -1.224646799147353207E-16, 1.000000000000000000, 0.0000000000000000000 ) ) ;
#85 = DIRECTION ( 'NONE',  ( 0.0000000000000000000, -3.061515884555942652E-16, 1.000000000000000000 ) ) ;
#86 = AXIS2_PLACEMENT_3D ( 'NONE', #135, #85, #160 ) ;
#87 = FACE_OUTER_BOUND ( 'NONE', #169, .T. ) ;
#88 = DIRECTION ( 'NONE',  ( 0.0000000000000000000, -3.061515884555942652E-16, 1.000000000000000000 ) ) ;
#89 = EDGE_CURVE ( 'NONE', #77, #190, #173, .T. ) ;
#90 = COORDINATED_UNIVERSAL_TIME_OFFSET ( 5, 0, .BEHIND. ) ;
#91 = CARTESIAN_POINT ( 'NONE',  ( 0.0000000000000000000, 6.508247152130970985E-16, 1.970199472476226177 ) ) ;
#92 = AXIS2_PLACEMENT_3D ( 'NONE', #104, #293, #153 ) ;
#93 = VERTEX_POINT ( 'NONE', #291 ) ;
#94 = LOCAL_TIME ( 15, 56, 35.00000000000000000, #90 ) ;
#95 = PERSON_AND_ORGANIZATION_ROLE ( 'design_owner' ) ;
#96 = ORIENTED_EDGE ( 'NONE', *, *, #285, .T. ) ;
#97 = CC_DESIGN_PERSON_AND_ORGANIZATION_ASSIGNMENT ( #143, #165, ( #258 ) ) ;
#98 = ORIENTED_EDGE ( 'NONE', *, *, #270, .T. ) ;
#99 = FACE_OUTER_BOUND ( 'NONE', #271, .T. ) ;
#100 = ADVANCED_FACE ( 'NONE', ( #87 ), #181, .F. ) ;
#101 = DIRECTION ( 'NONE',  ( 0.0000000000000000000, 1.000000000000000000, 3.895191368534427235E-16 ) ) ;
#102 = SHAPE_DEFINITION_REPRESENTATION ( #12, #187 ) ;
#103 = ADVANCED_FACE ( 'NONE', ( #99 ), #244, .T. ) ;
#104 = CARTESIAN_POINT ( 'NONE',  ( 0.0000000000000000000, 1.918414429050164078E-15, -2.170199472476249447 ) ) ;
#105 = CARTESIAN_POINT ( 'NONE',  ( 0.0000000000000000000, 1.918414429050163683E-15, -2.170199472476247671 ) ) ;
#106 = LINE ( 'NONE', #292, #20 ) ;
#107 = LINE ( 'NONE', #156, #218 ) ;
#108 = ORIENTED_EDGE ( 'NONE', *, *, #109, .F. ) ;
#109 = EDGE_CURVE ( 'NONE', #24, #290, #200, .T. ) ;
#110 = DATE_AND_TIME ( #29, #275 ) ;
#111 = CARTESIAN_POINT ( 'NONE',  ( 0.0000000000000000000, 6.508247152130963096E-16, 1.970199472476225511 ) ) ;
#112 = DIRECTION ( 'NONE',  ( 0.0000000000000000000, 1.000000000000000000, 3.073328992872296367E-16 ) ) ;
#113 = ORIENTED_EDGE ( 'NONE', *, *, #47, .F. ) ;
#114 = CARTESIAN_POINT ( 'NONE',  ( 0.0000000000000000000, 7.339534024315310972E-15, 2.099295389527961131 ) ) ;
#115 = AXIS2_PLACEMENT_3D ( 'NONE', #208, #296, #136 ) ;
#116 = LINE ( 'NONE', #249, #172 ) ;
#117 = FACE_OUTER_BOUND ( 'NONE', #252, .T. ) ;
#118 = EDGE_LOOP ( 'NONE', ( #3, #250, #233, #74 ) ) ;
#119 = DIRECTION ( 'NONE',  ( 0.0000000000000000000, -1.000000000000000000, -3.119364317580180393E-16 ) ) ;
#120 = PERSON_AND_ORGANIZATION ( #278, #277 ) ;
#121 = ORIENTED_EDGE ( 'NONE', *, *, #82, .T. ) ;
#122 = APPROVAL_DATE_TIME ( #171, #213 ) ;
#123 =( LENGTH_UNIT ( ) NAMED_UNIT ( * ) SI_UNIT ( .MILLI., .METRE. ) );
#124 = DATE_TIME_ROLE ( 'classification_date' ) ;
#125 = PERSON_AND_ORGANIZATION ( #278, #277 ) ;
#126 = ADVANCED_FACE ( 'NONE', ( #23 ), #188, .T. ) ;
#127 = CARTESIAN_POINT ( 'NONE',  ( 1.555301434917138433E-15, -12.69999999999999751, -1.970199472476261482 ) ) ;
#128 = DIRECTION ( 'NONE',  ( 0.0000000000000000000, -1.000000000000000000, -3.073328992872296367E-16 ) ) ;
#129 = DIRECTION ( 'NONE',  ( -0.0000000000000000000, 3.061515884555943146E-16, -1.000000000000000000 ) ) ;
#130 = ADVANCED_FACE ( 'NONE', ( #73 ), #18, .T. ) ;
#131 = AXIS2_PLACEMENT_3D ( 'NONE', #111, #61, #138 ) ;
#132 = ORIENTED_EDGE ( 'NONE', *, *, #176, .F. ) ;
#133 = CIRCLE ( 'NONE', #10, 12.69999999999999929 ) ;
#134 = EDGE_LOOP ( 'NONE', ( #21, #182 ) ) ;
#135 = CARTESIAN_POINT ( 'NONE',  ( 0.0000000000000000000, 1.918414429050164078E-15, -2.170199472476249447 ) ) ;
#136 = DIRECTION ( 'NONE',  ( 0.0000000000000000000, 1.000000000000000000, 3.895191368534427235E-16 ) ) ;
#137 = APPROVAL_DATE_TIME ( #205, #37 ) ;
#138 = DIRECTION ( 'NONE',  ( 0.0000000000000000000, 1.000000000000000000, 3.073328992872296367E-16 ) ) ;
#139 = PRODUCT_DEFINITION_FORMATION_WITH_SPECIFIED_SOURCE ( 'ANY', '', #62, .NOT_KNOWN. ) ;
#140 = VECTOR ( 'NONE', #251, 1000.000000000000000 ) ;
#141 = VERTEX_POINT ( 'NONE', #260 ) ;
#142 = CC_DESIGN_PERSON_AND_ORGANIZATION_ASSIGNMENT ( #125, #224, ( #139 ) ) ;
#143 = PERSON_AND_ORGANIZATION ( #278, #277 ) ;
#144 = CIRCLE ( 'NONE', #191, 12.51257443367702926 ) ;
#145 = CARTESIAN_POINT ( 'NONE',  ( 0.0000000000000000000, 7.339534024315310972E-15, 2.099295389527961131 ) ) ;
#146 = DIRECTION ( 'NONE',  ( 0.0000000000000000000, -1.000000000000000000, -3.119364317580180393E-16 ) ) ;
#147 =( NAMED_UNIT ( * ) SI_UNIT ( $, .STERADIAN. ) SOLID_ANGLE_UNIT ( ) );
#148 = APPROVAL_ROLE ( '' ) ;
#149 = AXIS2_PLACEMENT_3D ( 'NONE', #159, #83, #30 ) ;
#150 = CIRCLE ( 'NONE', #79, 12.69999999999999929 ) ;
#151 = ADVANCED_FACE ( 'NONE', ( #301 ), #236, .T. ) ;
#152 = CC_DESIGN_PERSON_AND_ORGANIZATION_ASSIGNMENT ( #120, #72, ( #139 ) ) ;
#153 = DIRECTION ( 'NONE',  ( 0.0000000000000000000, 1.000000000000000000, 3.122502256758250798E-16 ) ) ;
#154 = AXIS2_PLACEMENT_3D ( 'NONE', #91, #19, #195 ) ;
#155 = LINE ( 'NONE', #295, #232 ) ;
#156 = CARTESIAN_POINT ( 'NONE',  ( 0.0000000000000000000, 12.69999999999999929, 1.970199472476229285 ) ) ;
#157 = COORDINATED_UNIVERSAL_TIME_OFFSET ( 5, 0, .BEHIND. ) ;
#158 = ORIENTED_EDGE ( 'NONE', *, *, #282, .F. ) ;
#159 = CARTESIAN_POINT ( 'NONE',  ( 0.0000000000000000000, -2.873225312186034548E-15, 35.45780052752375155 ) ) ;
#160 = DIRECTION ( 'NONE',  ( 0.0000000000000000000, -1.000000000000000000, -3.122502256758250798E-16 ) ) ;
#161 = CARTESIAN_POINT ( 'NONE',  ( 0.0000000000000000000, 1.021592928931097620E-14, -0.1701994724762484479 ) ) ;
#162 = AXIS2_PLACEMENT_3D ( 'NONE', #214, #57, #15 ) ;
#163 = UNCERTAINTY_MEASURE_WITH_UNIT (LENGTH_MEASURE( 1.000000000000000082E-05 ), #123, 'distance_accuracy_value', 'NONE');
#164 = ORIENTED_EDGE ( 'NONE', *, *, #44, .T. ) ;
#165 = PERSON_AND_ORGANIZATION_ROLE ( 'creator' ) ;
#166 = DIRECTION ( 'NONE',  ( 1.000000000000000000, 0.0000000000000000000, 0.0000000000000000000 ) ) ;
#167 = DATE_TIME_ROLE ( 'creation_date' ) ;
#168 = CIRCLE ( 'NONE', #154, 12.69999999999999929 ) ;
#169 = EDGE_LOOP ( 'NONE', ( #245, #256, #132 ) ) ;
#170 = CC_DESIGN_DATE_AND_TIME_ASSIGNMENT ( #248, #124, ( #246 ) ) ;
#171 = DATE_AND_TIME ( #184, #94 ) ;
#172 = VECTOR ( 'NONE', #206, 1000.000000000000114 ) ;
#173 = LINE ( 'NONE', #254, #140 ) ;
#174 = AXIS2_PLACEMENT_3D ( 'NONE', #219, #63, #67 ) ;
#175 = APPROVAL_DATE_TIME ( #1, #267 ) ;
#176 = EDGE_CURVE ( 'NONE', #141, #290, #5, .T. ) ;
#177 = ADVANCED_FACE ( 'NONE', ( #117 ), #261, .T. ) ;
#178 = FACE_OUTER_BOUND ( 'NONE', #41, .T. ) ;
#179 = ORIENTED_EDGE ( 'NONE', *, *, #44, .F. ) ;
#180 = CARTESIAN_POINT ( 'NONE',  ( 0.0000000000000000000, 12.69999999999999929, 1.970199472476230174 ) ) ;
#181 = SPHERICAL_SURFACE ( 'NONE', #115, 35.62800000000000011 ) ;
#182 = ORIENTED_EDGE ( 'NONE', *, *, #47, .T. ) ;
#183 = DIRECTION ( 'NONE',  ( -0.0000000000000000000, 3.061515884555943146E-16, -1.000000000000000000 ) ) ;
#184 = CALENDAR_DATE ( 2019, 9, 12 ) ;
#185 = CARTESIAN_POINT ( 'NONE',  ( 0.0000000000000000000, 1.857184111359047976E-15, -1.970199472476257485 ) ) ;
#186 = DIRECTION ( 'NONE',  ( 0.0000000000000000000, 0.8235475730897303670, -0.5672472078891311886 ) ) ;
#187 = ADVANCED_BREP_SHAPE_REPRESENTATION ( 'TTN099148-E0W', ( #50, #199 ), #222 ) ;
#188 = PLANE ( 'NONE',  #7 ) ;
#189 = CALENDAR_DATE ( 2019, 9, 12 ) ;
#190 = VERTEX_POINT ( 'NONE', #14 ) ;
#191 = AXIS2_PLACEMENT_3D ( 'NONE', #145, #266, #146 ) ;
#192 = CARTESIAN_POINT ( 'NONE',  ( 0.0000000000000000000, 0.0000000000000000000, 0.0000000000000000000 ) ) ;
#193 = ORIENTED_EDGE ( 'NONE', *, *, #240, .T. ) ;
#194 = CARTESIAN_POINT ( 'NONE',  ( 0.0000000000000000000, 1.857184111359047976E-15, -1.970199472476257485 ) ) ;
#195 = DIRECTION ( 'NONE',  ( 0.0000000000000000000, -1.000000000000000000, -3.073328992872296367E-16 ) ) ;
#196 = LOCAL_TIME ( 15, 56, 35.00000000000000000, #298 ) ;
#197 = CC_DESIGN_PERSON_AND_ORGANIZATION_ASSIGNMENT ( #9, #268, ( #246 ) ) ;
#198 = MECHANICAL_CONTEXT ( 'NONE', #22, 'mechanical' ) ;
#199 = AXIS2_PLACEMENT_3D ( 'NONE', #192, #238, #166 ) ;
#200 = CIRCLE ( 'NONE', #203, 35.62800000000000011 ) ;
#201 = APPROVAL_PERSON_ORGANIZATION ( #70, #37, #148 ) ;
#202 = APPLICATION_CONTEXT ( 'configuration controlled 3d designs of mechanical parts and assemblies' ) ;
#203 = AXIS2_PLACEMENT_3D ( 'NONE', #257, #35, #84 ) ;
#204 = DIRECTION ( 'NONE',  ( 1.000000000000000000, 0.0000000000000000000, -0.0000000000000000000 ) ) ;
#205 = DATE_AND_TIME ( #189, #269 ) ;
#206 = DIRECTION ( 'NONE',  ( 1.008554899329909002E-16, -0.8235475730897300339, -0.5672472078891316327 ) ) ;
#207 = AXIS2_PLACEMENT_3D ( 'NONE', #25, #273, #128 ) ;
#208 = CARTESIAN_POINT ( 'NONE',  ( 0.0000000000000000000, -2.873225312186034548E-15, 35.45780052752375155 ) ) ;
#209 = ORIENTED_EDGE ( 'NONE', *, *, #299, .T. ) ;
#210 = ORIENTED_EDGE ( 'NONE', *, *, #237, .T. ) ;
#211 = ADVANCED_FACE ( 'NONE', ( #178 ), #297, .T. ) ;
#212 = CARTESIAN_POINT ( 'NONE',  ( 0.0000000000000000000, 1.918414429050164078E-15, -2.170199472476249447 ) ) ;
#213 = APPROVAL ( #45, 'UNSPECIFIED' ) ;
#214 = CARTESIAN_POINT ( 'NONE',  ( 0.0000000000000000000, 6.508247152130963096E-16, 1.970199472476225511 ) ) ;
#215 = CIRCLE ( 'NONE', #92, 12.50000000000000711 ) ;
#216 = ORIENTED_EDGE ( 'NONE', *, *, #31, .F. ) ;
#217 = DIRECTION ( 'NONE',  ( 0.0000000000000000000, 1.000000000000000000, 3.061515884555943146E-16 ) ) ;
#218 = VECTOR ( 'NONE', #186, 1000.000000000000000 ) ;
#219 = CARTESIAN_POINT ( 'NONE',  ( 0.0000000000000000000, 1.918414429050164078E-15, -2.170199472476249447 ) ) ;
#220 = APPROVAL_STATUS ( 'not_yet_approved' ) ;
#221 =( NAMED_UNIT ( * ) PLANE_ANGLE_UNIT ( ) SI_UNIT ( $, .RADIAN. ) );
#222 =( GEOMETRIC_REPRESENTATION_CONTEXT ( 3 ) GLOBAL_UNCERTAINTY_ASSIGNED_CONTEXT ( ( #163 ) ) GLOBAL_UNIT_ASSIGNED_CONTEXT ( ( #123, #221, #147 ) ) REPRESENTATION_CONTEXT ( 'NONE', 'WORKASPACE' ) );
#223 = COORDINATED_UNIVERSAL_TIME_OFFSET ( 5, 0, .BEHIND. ) ;
#224 = PERSON_AND_ORGANIZATION_ROLE ( 'creator' ) ;
#225 = PERSON_AND_ORGANIZATION ( #278, #277 ) ;
#226 = EDGE_CURVE ( 'NONE', #190, #46, #133, .T. ) ;
#227 = ORIENTED_EDGE ( 'NONE', *, *, #285, .F. ) ;
#228 = CARTESIAN_POINT ( 'NONE',  ( 0.0000000000000000000, -12.50000000000000533, -2.170199472476253444 ) ) ;
#229 = DESIGN_CONTEXT ( 'detailed design', #202, 'design' ) ;
#230 = CARTESIAN_POINT ( 'NONE',  ( 0.0000000000000000000, -2.873225312186034548E-15, 35.45780052752375155 ) ) ;
#231 = CC_DESIGN_PERSON_AND_ORGANIZATION_ASSIGNMENT ( #265, #95, ( #62 ) ) ;
#232 = VECTOR ( 'NONE', #129, 1000.000000000000000 ) ;
#233 = ORIENTED_EDGE ( 'NONE', *, *, #240, .F. ) ;
#234 = CARTESIAN_POINT ( 'NONE',  ( 0.0000000000000000000, -12.50000000000000533, -2.170199472476253444 ) ) ;
#235 = CALENDAR_DATE ( 2019, 9, 12 ) ;
#236 = CYLINDRICAL_SURFACE ( 'NONE', #17, 12.69999999999999929 ) ;
#237 = EDGE_CURVE ( 'NONE', #8, #46, #65, .T. ) ;
#238 = DIRECTION ( 'NONE',  ( 0.0000000000000000000, 0.0000000000000000000, 1.000000000000000000 ) ) ;
#239 = COORDINATED_UNIVERSAL_TIME_OFFSET ( 5, 0, .BEHIND. ) ;
#240 = EDGE_CURVE ( 'NONE', #77, #33, #168, .T. ) ;
#241 = APPROVAL_STATUS ( 'not_yet_approved' ) ;
#242 = AXIS2_PLACEMENT_3D ( 'NONE', #253, #78, #80 ) ;
#243 = CYLINDRICAL_SURFACE ( 'NONE', #242, 12.69999999999999929 ) ;
#244 = CONICAL_SURFACE ( 'NONE', #86, 12.50000000000000711, 0.7853981633974480570 ) ;
#245 = ORIENTED_EDGE ( 'NONE', *, *, #282, .T. ) ;
#246 = SECURITY_CLASSIFICATION ( '', '', #42 ) ;
#247 = EDGE_LOOP ( 'NONE', ( #108, #209, #300 ) ) ;
#248 = DATE_AND_TIME ( #53, #196 ) ;
#249 = CARTESIAN_POINT ( 'NONE',  ( 1.555301434917138433E-15, -12.69999999999999929, 1.970199472476221514 ) ) ;
#250 = ORIENTED_EDGE ( 'NONE', *, *, #31, .T. ) ;
#251 = DIRECTION ( 'NONE',  ( -0.0000000000000000000, 3.061515884555943146E-16, -1.000000000000000000 ) ) ;
#252 = EDGE_LOOP ( 'NONE', ( #179, #287, #210, #255 ) ) ;
#253 = CARTESIAN_POINT ( 'NONE',  ( 0.0000000000000000000, 1.918414429050163683E-15, -2.170199472476247671 ) ) ;
#254 = CARTESIAN_POINT ( 'NONE',  ( 0.0000000000000000000, 12.70000000000000107, -2.170199472476243674 ) ) ;
#255 = ORIENTED_EDGE ( 'NONE', *, *, #226, .F. ) ;
#256 = ORIENTED_EDGE ( 'NONE', *, *, #109, .T. ) ;
#257 = CARTESIAN_POINT ( 'NONE',  ( 0.0000000000000000000, -2.873225312186034548E-15, 35.45780052752375155 ) ) ;
#258 = PRODUCT_DEFINITION ( 'UNKNOWN', '', #139, #229 ) ;
#259 = DIRECTION ( 'NONE',  ( 0.0000000000000000000, -1.000000000000000000, -3.122502256758250798E-16 ) ) ;
#260 = CARTESIAN_POINT ( 'NONE',  ( 0.0000000000000000000, 12.51257443367704347, 2.099295389527965572 ) ) ;
#261 = CONICAL_SURFACE ( 'NONE', #272, 12.50000000000000711, 0.7853981633974480570 ) ;
#262 = ORIENTED_EDGE ( 'NONE', *, *, #82, .F. ) ;
#263 = CC_DESIGN_APPROVAL ( #37, ( #258 ) ) ;
#264 = APPROVAL_ROLE ( '' ) ;
#265 = PERSON_AND_ORGANIZATION ( #278, #277 ) ;
#266 = DIRECTION ( 'NONE',  ( 0.0000000000000000000, -3.061515884555891870E-16, 1.000000000000000000 ) ) ;
#267 = APPROVAL ( #241, 'UNSPECIFIED' ) ;
#268 = PERSON_AND_ORGANIZATION_ROLE ( 'classification_officer' ) ;
#269 = LOCAL_TIME ( 15, 56, 35.00000000000000000, #157 ) ;
#270 = EDGE_CURVE ( 'NONE', #141, #77, #107, .T. ) ;
#271 = EDGE_LOOP ( 'NONE', ( #113, #164, #227, #60 ) ) ;
#272 = AXIS2_PLACEMENT_3D ( 'NONE', #212, #59, #259 ) ;
#273 = DIRECTION ( 'NONE',  ( -0.0000000000000000000, 3.061515884555891870E-16, -1.000000000000000000 ) ) ;
#274 = ORIENTED_EDGE ( 'NONE', *, *, #75, .T. ) ;
#275 = LOCAL_TIME ( 15, 56, 35.00000000000000000, #223 ) ;
#276 = PRODUCT_RELATED_PRODUCT_CATEGORY ( 'detail', '', ( #62 ) ) ;
#277 = ORGANIZATION ( 'UNSPECIFIED', 'UNSPECIFIED', '' ) ;
#278 = PERSON ( 'UNSPECIFIED', 'UNSPECIFIED', 'UNSPECIFIED', ('UNSPECIFIED'), ('UNSPECIFIED'), ('UNSPECIFIED') ) ;
#279 = VECTOR ( 'NONE', #54, 1000.000000000000000 ) ;
#280 = CC_DESIGN_APPROVAL ( #267, ( #246 ) ) ;
#281 = APPROVAL_PERSON_ORGANIZATION ( #43, #267, #4 ) ;
#282 = EDGE_CURVE ( 'NONE', #141, #24, #56, .T. ) ;
#283 = EDGE_LOOP ( 'NONE', ( #64, #121, #6, #2 ) ) ;
#284 = DIRECTION ( 'NONE',  ( 0.0000000000000000000, 1.000000000000000000, 3.073328992872296367E-16 ) ) ;
#285 = EDGE_CURVE ( 'NONE', #46, #190, #150, .T. ) ;
#286 = EDGE_CURVE ( 'NONE', #8, #93, #69, .T. ) ;
#287 = ORIENTED_EDGE ( 'NONE', *, *, #286, .F. ) ;
#288 = APPLICATION_PROTOCOL_DEFINITION ( 'international standard', 'config_control_design', 1994, #202 ) ;
#289 = SPHERICAL_SURFACE ( 'NONE', #71, 35.62800000000000011 ) ;
#290 = VERTEX_POINT ( 'NONE', #161 ) ;
#291 = CARTESIAN_POINT ( 'NONE',  ( 1.543054966925665470E-15, 12.50000000000000888, -2.170199472476245450 ) ) ;
#292 = CARTESIAN_POINT ( 'NONE',  ( 1.530808498934192310E-15, 12.50000000000000888, -2.170199472476245450 ) ) ;
#293 = DIRECTION ( 'NONE',  ( -0.0000000000000000000, 3.061515884555943146E-16, -1.000000000000000000 ) ) ;
#294 = CC_DESIGN_SECURITY_CLASSIFICATION ( #246, ( #139 ) ) ;
#295 = CARTESIAN_POINT ( 'NONE',  ( 1.555301434917138433E-15, -12.69999999999999751, -2.170199472476251668 ) ) ;
#296 = DIRECTION ( 'NONE',  ( 1.000000000000000000, 0.0000000000000000000, -0.0000000000000000000 ) ) ;
#297 = CONICAL_SURFACE ( 'NONE', #162, 12.69999999999999929, 0.9676369370377523316 ) ;
#298 = COORDINATED_UNIVERSAL_TIME_OFFSET ( 5, 0, .BEHIND. ) ;
#299 = EDGE_CURVE ( 'NONE', #24, #141, #144, .T. ) ;
#300 = ORIENTED_EDGE ( 'NONE', *, *, #176, .T. ) ;
#301 = FACE_OUTER_BOUND ( 'NONE', #283, .T. ) ;
ENDSEC;
END-ISO-10303-21;
